Cure - Lullaby Chords & Tabs

 

Lullaby Chords & Tabs

Cure Chords & Tabs

Version: 2 Type: Tab 0 ratings
1 star 2 stars 3 stars 4 stars 5 stars
comments

Lullaby Tab

Lullaby:  The Cure
>From Disintegration Songbook Published by Amsco Publications
Tab: By Paul U30480@uicvm.uic.edu

guitar 1
----4-----------4--|------4-----------4----|-----0-----------|
-------------------|-----------------------|-----0---------5-|
----4-----------4--|------4---4--4----4----|-------4--4----4-|
-------------2-----|---------------2-------|------------2----|
-4-----4--4--------|-4-------4--4----------|--0---0--0-------|
-------------------|-----------------------|-----------------|
guitar 2 (Rhythym figure 1)
-------------------|-----------------------|------4----------|
-------------------|-------------------5--5|---7-7-----------|
--------4--6--6---6|---------4--6--6-------|--------6-------9|
-------------------|-----------------------|-----------------|
-------------------|-----------------------|-----------------|
-------------------|-----------------------|-----------------|

guitar 1
--------0-----------0----||------4------------4-|-----4---------4-|
--------0-----------0----||---------------------|-----------------|
------------4--4---------||------4----4---4---4-|-----4--4--4---4-|
-----------2--2--2-------||----------------2----|------------2----|
---0-------------------5-||--4------4---4-------|--4----4--4------|
-------------------------||---------------------|-----------------|
guitar 2
--------4----------------||---------------------------------------|
---7-7-------------------||---------------------------------------|
-----------6-----6--4----||(end rhythym figure 1)-----------------|
-------------------------||---------------------------------------|
-------------------------||---------------------------------------|
-------------------------||---------------------------------------|

guitar 1
--------0---------------0-|-----0---------------0-||---4------------4-|
--------0---------------0-|-----0---------------0-||------------------|
--------------4---4-------|-----------4---4-------||---4----4---4---4-|
------------2---2---2-----|---------2---2---2-----||-------------2----|
----0---------------------|-0---------------------||4-----4---4-------|
--------------------------|-----------------------||------------------|

Guitar 1                                                    2nd time only
                                                                    1) On
-------4--------------4--|------0---------------0-|----0-------------0--|
-------------------------|------0---------------0-|----0-------------0--|
-------4-----4----4---4--|------------4---4-------|---------4---4-------|
-------------------2-----|----------2---2---2-----|-------2---2---2-----|
---4------4----4---------|-0----------------------|-0-------------------|
-------------------------|------------------------|---------------------|

   candy-stripe legs the spider-man_comes_ Softly through the shadow of
---------4--------------4|------4-------------4-|-----0-------------0-|
-------------------------|----------------------|-----0-------------0-|
---------4------4---4---4|------4-----4---4---4-|----------4---4------|
---------------------2---|-----------------2----|--------2---2---2----|
---4----------4---4------|--4-------4---4-------|-0-------------------|
-------------------------|----------------------|---------------------|

  evening sun         Stealing past the windows of the blissfully dead
------0--------------0--|------4-------------4--|-----4--------------4|
------0--------------0--|-----------------------|---------------------|
-----------4---4--------|------4----4---4----4--|-----4---4---4------4|
---------2---2---2------|----------------2------|---------------2-----|
--0---------------------|--4------4---4---------|-4------4---4--------|
------------------------|-----------------------|---------------------|

  Looking for the victim  shivering in bed          Searching out fear in
--------0-------------0-|-------0---------------0-|-------4----------4|
--------0-------------0-|-------0---------------0-|-------------------|
-------------4---4------|-------------4---4-------|-------4-------4--4|
-----------2---2---2----|-----------2---2---2-----|------------6---2--|
---0--------------------|--0----------------------|--4-------4--4-----|
------------------------|-------------------------|-------------------|

gathering gloom     And    suddenly!       A movement    in   the
--------4-------------4-|-------------0-------------------0----------|
------------------------|-------------0-------------------0----------|
--------4--------4----4-|-------------------4-----4------------------|
-------------6----2-----|----------------2-----2-----2---------------|
---4-------4---4--------|--0-----------------------------------------|
------------------------|--------------------------------------------|

[ Tab from: http://www.guitartabs.cc/tabs/c/cure/lullaby_tab_ver_2.html ]
corner of the room! And there is nothing I can do      When I
-------0-------------0--|------4--------------4-----------------------|
-------0-------------0--|---------------------------------------------|
------------4---4-------|------4--------4-----4-----------------------|
----------2---2---2-----|-----------6----2----------------------------|
--0---------------------|--4------4---4-------------------------------|
------------------------|---------------------------------------------|
                                                        (to Coda)
realise with fright  That the spiderman is having me for dinner tonight!
--------4-------------4-|-----0--------0--|----0------------0-------||
------------------------|-----0--------0--|----0------------0-------||
--------4--------4----4-|--------4-4------|--------4--4-------------||
-------------6----2-----|-------2-2-2-----|-------2--2-2------------||
--4--------4---4--------|--0--------------|-0-----------------------||
------------------------|-----------------|-------------------------||

(Coda)
dinner tonight   And I    feel like I'm being eaten     by  a
--------0-------------0-||---------4--------------------4-----------|
--------0-------------0-||---------2--------------------2-----------|
-------------4---4------||---------4--------------------4-----------|
-----------2---2---2----||----------------6------6------------------|
--0---------------------||-----4-------------------4----------------|
------------------------||-2-----------2-------2--------------------|

  thousand million shivering fury holes                    And I
----------4-------------4-|----0---------0-|----0--------0----------|
----------2-------------2-|----0---------0-|----0--------0----------|
----------4-------------4-|--------4-4-----|--------4-4-------------|
---------------6----6-----|-------2-2-2----|-------2-2-2------------|
------4---------------4---|-0--------------|-0----------------------|
---2---------2---2--------|----------------|------------------------|

  know that in the morning I will wake up in the shivering cold
----------4--------------4-|---------4---------------4--------------|
----------2--------------2-|---------2---------------2--------------|
----------4--------------4-|---------4---------------4--------------|
---------------6----6------|--------------6----6--------------------|
------4--------------4-----|-----4--------------4-------------------|
---2---------2---2---------|--2---------2---2-----------------------|

                                And the spiderman is always
------0-------------0------|----------0-------------0---------------|
------0-------------0------|----------0-------------0---------------|
-----------4---4-----------|--------------4---4---------------------|
---------2---2---2---------|------------2---2---2-------------------|
--0------------------------|--0-------------------------------------|
---------------------------|----------------------------------------|

keyboard arranged for guitar
           hun - gry
-------------------------------|------------------------------------|
--9-10-9-7-9-7-9-10-9-7-9-7-9--|--------------9-10-12-10-10---9-----|
-------------------------------|---------------------------------11-|
-------------------------------|------------------------------------|
-------------------------------|------------------------------------|
-------------------------------|------------------------------------|

guitar 1
           hun - gry
-------------------------------|------------------------------------|
-------------------------------|-------------------------------5--5-|
-------------4----6---6------6-|-------------4----6-------6---------|
-------------------------------|------------------------------------|
-------------------------------|------------------------------------|
-------------------------------|------------------------------------|

keyboard arr. for guitar                             repeat and fade
------------------------------|-------------------------------------|
--------------9---------------|-------------------------------------|
-----11-----------9-----------|-------------------------------------|
------------------------------|-------------------------------------|
------------------------------|-------------------------------------|
------------------------------|-------------------------------------|

guitar 1
-------------4----------------|----------4--------------------------|
----7---7------------------5--|--7---7------------------------------|
-----------------6------------|--------------6--------6------4------|
------------------------------|-------------------------------------|
------------------------------|-------------------------------------|
------------------------------|-------------------------------------|
Comments