Cure - Lullaby Chords & Tabs

 

Lullaby Chords & Tabs

Cure Chords & Tabs

Version: 1 Type: Tab 0 ratings
1 star 2 stars 3 stars 4 stars 5 stars
comments

Lullaby Tab

This is my 1st tab. I'm not sure if I got the timing right, but the notes are. 

e|----4------------4-----4---------------------4-------4---------4-----------|
B|---------------------------------------------------------------------------|
G|----4------------4-----4-----4-----4---------4-------4---------4-----------|
D|--------------2-----------------------2-4-4-------------2-4-4--------------|
A|--4-----4--4--------4-----4-----4---------------4-----------------4--4-0---|
E|---------------------------------------------------------------------------|
[ Tab from: http://www.guitartabs.cc/tabs/c/cure/lullaby_tab.html ]
e|-----4-----------4---------------------4-------------4---------------------|
B|---------------------------------------------------------------------------|
G|-----4-----------4-----4-----4---------4-------------4-------4-----4--6-6--|
D|--------------------------------2-4-4---------2-4-4------------------------|
A|--4-------4-0-4-----4-----4---------------4-------------4--4-0-------------|
E|--------0------------------------------------------------------------------|

e|---------------4-----------4----------------------------------4-----------4|
B|-------5-5-7-7---------7-7----------------------------5-5-7-7---------7-7--|
G|-4-6-6-----------6---9-------6--6-4-----4-6-6---4-6-6-----------6---9------|
D|---------------------------------------------------------------------------|
A|---------------------------------------------------------------------------|
E|---------------------------------------------------------------------------|

e|-----------|
B|-----------|
G|-6--6-4----|
D|-----------|
A|-----------|
E|-----------|
Comments