Cure - Lullaby Chords & Tabs

 

Lullaby Chords & Tabs

Cure Chords & Tabs

Version: 3 Type: Bass Tab

Lullaby Bass Tab

   
LULLABY
The Cure

Taken from the Elektra album Disintegration (1989)

Transcribed by: Damian Pamminger (TwitcheD_85@hotmail.com)

Standard tuning: E A D G

Fill
|------|
|------|
|-14-\-|
|------|

Fig. 1
|---------------------------------------------------------------------------------|
|----------------------------------6-6--------------------------------------------|
|-4-4---2-/4-4-4-----4---2-/4-4-4------------------------------------------2-2----|
|----------------------------------------5---4-/5-5-5-----5-5---4-/5-5-5----------|
[ Tab from: http://www.guitartabs.cc/tabs/c/cure/lullaby_btab_ver_3.html ]
Fig. 2
|-------------------------------------------------------------------------------|
|-------------------------------------------------------------------------------|
|-------------------------------------------------------------------------2-2---|
|-2---0-2-2-2-----2-2---0-2-2-2---4---5---4-/5-5-5-----5-5---4-/5-5-5-----------|

End:
|-----------------------------------------------------------------------------|
|----------------------------------6-6----------------------------------------|
|-4-4---2-/4-4-4-----4---2-/4-4-4----------------------------------------2----|
|----------------------------------------5---4-/5-5-5-----5---4-/5-5-5--------|

|-----|
|-----|
|-4-4-|
|-----|