Cure - Lovesong Chords & Tabs

 

Lovesong Chords & Tabs

Cure Chords & Tabs

Version: 4 Type: Tab 0 ratings
1 star 2 stars 3 stars 4 stars 5 stars
comments

Lovesong Tab

   
Intro (Riff 1):
     Amadd9 
e||--7------------------------------------------------------------|
B||--5------------------------------------------------------------|
G||--5---5--7/9-7--9-7/5----5--7/9-7--9-7/5----5--7/9-7--9-7/5----|
D||--7-------------------7------------------7------------------7--|
A||---------------------------------------------------------------|
E||---------------------------------------------------------------|
                     Amadd9
e|-------------------7------||
B|-------------------5------||
G|--5--7/9-7--9-7/5--5------||
D|-------------------7------||
A|--------------------------||
E|--------------------------||

Amadd9
Whenever I'm alone with you
You make me feel like I am home again

Amadd9
Whenever I'm alone with you
You make me feel like I am whole again

Riff 1 (x1)

Amadd9
Whenever I'm alone with you
You make me feel like I am young again

Amadd9
Whenever I'm alone with you
You make me feel like I am fun again

Chorus:

F7M     G6       Am      Cadd9
However far away  I will always love you
F7M     G6          Am      Cadd9
However long I stay  I will always love you
F7M     G6           Am      Cadd9
Whatever words I say  I will always love you
F7M    G6
I will always love you

Riff 1 (x1)
[ Tab from: http://www.guitartabs.cc/tabs/c/cure/lovesong_tab_ver_4.html ]
Solo
e|-7-7-7-7-------7--7------7-7-7-7--------7-8/(10)-10-10---------------------|
B|---------8----------8------------8----------------------8-8-8-8--8/(10)-10-|
G|------------5----------5-----------5---------------------------------------|
D|---------------------------------------------------------------------------|
A|---------------------------------------------------------------------------|
E|---------------------------------------------------------------------------|

e|---------------------------------------|
B|---------------------------------------|
G|--7b8-5--7/9-7-5--5-5-5-5-4------------|
D|-----------------------------5-7-5/7---|
A|---------------------------------------|
E|---------------------------------------|

Verse3:
Amadd9
Whenever I'm alone with you
You make me feel like I am free again
Amadd9
Whenever I'm alone with you
You make me feel like I am clean again

Chorus

F7M     G6       Am      Cadd9
However far away  I will always love you
F7M     G6          Am      Cadd9
However long I stay  I will always love you
F7M     G6           Am      Cadd9
Whatever words I say  I will always love you
F7M    G6                    Amadd9
I will always love you..


==

Chords:
          E  A  D  G  B  E
Amadd9    x  x  7  5  5  7
F7M       x (3) 3  2  1  0
G6        x (5) 5  4  3  0
Am        x  0  2  2  1  0
Cadd9     x  3  2  0  3  0

==============================

I think it sounds pretty good.
Any corrections, send me an email.
Diego Perri. the_unplugged_hobbit@hotmail.com
Comments