Cure - Lovesong Chords & Tabs

 

Lovesong Chords & Tabs

Cure Chords & Tabs

Version: 4 Type: Bass Tab 0 ratings
1 star 2 stars 3 stars 4 stars 5 stars
comments

Lovesong Bass Tab

----------------------------------------------------------------------------
			     Love Song - The Cure
----------------------------------------------------------------------------

Tabbed By : Memo lala
e-mail: deride_korn_mudvayne666@hotmail.com
[ Tab from: http://www.guitartabs.cc/tabs/c/cure/lovesong_btab_ver_4.html ]
Tuning:Eb Ab Db Gb but normal is fine
   this is played throughout the song:(the verse)
G|----------------------------------------------|
D|------7-9-10-555-77-9----10-9-7-----99-10-----|
A|-0-0------------------88--------777-----------|
E|----------------------------------------------|
   the chorus:
G|---------------------------------------------------------|
D|----5-----------77-8--------8----------------------------|
A|-66---6--8-8-88-------10-10----10--14-14-14-14-15-15-15--|
E|---------------------------------------------------------|


hope its right
Comments