Cure - Lovesong Chords & Tabs

 

Lovesong Chords & Tabs

Cure Chords & Tabs

Version: 2 Type: Bass Tab 0 ratings
1 star 2 stars 3 stars 4 stars 5 stars
comments

Lovesong Bass Tab

   
Hello

Here's the bass tab for lovesong by the cure 

Shaun Wilkinson

Here's Lovesong by The Cure, 


Verse:  

|  e  e  e  e  e  e  e  e  e  e  e  e  e  e  e  e  e  e  e  e                    
G--------------------------------------------------------------------------------
D--7--7--7--9-10-----------7--7--9-------10--9--7-----9--9-10--------------------
A----------------10-10-10-----------8--8-----------7-----------------------------
E--------------------------------------------------------------------------------
>                                                                                

Chorus:  I couldn't be bothered to put this down properly, basically these are the notes
if you've got the record it's easy to work out the rythem
[ Tab from: http://www.guitartabs.cc/tabs/c/cure/lovesong_btab_ver_2.html ]
|  e  e  e  e  e  e  e  e  e  e  e  e  e  e  e  e  e  e  e  e  e   e  e  e       
G--------------------------------------------------------------------------------
D--------------------------------------7--7--7--7--7--7-10-10-10--10-10-10-------
A--8--8--8--8--8--8-10-10-10-10-10-10--------------------------------------------
E--------------------------------------------------------------------------------
>                                                                                  

This is how you come out of the chorus and back into the verse.  Play the first half of the
chorus and then jump back in to the verse without a pause.

|  e  e  e  e  e  e  e  e  e  e  e  e  e  e  e  e
G------------------------------------------------
D-----------------------------------7--7--7--9-10
A--8--8--8--8--8--8-10-10-10-10-10---------------
E------------------------------------------------
>                                                

Submited by Shaun

shaun.wilkinson@which.net
Comments