Cure - Last Day Of Summer Chords & Tabs

 

Last Day Of Summer Chords & Tabs

Cure Chords & Tabs

Version: 1 Type: Tab 0 ratings
1 star 2 stars 3 stars 4 stars 5 stars
comments

Last Day Of Summer Tab

   
Last day of summer: Cure
TABBER: Unknown

chords
(-)move between notes

Em7   Am    C     G     Esus4   F
0     0     0     3-2   0       1-0
3-0   1-0   1-0   3     0       1
0     2     0     0     2-0     2
2     2     2     0     2       3
2     0     3     2     2       3
0     #     #     3     0       1

Em7              Am            C             G 
Em7              Am            C             G 

 Em7              Am            C             G      
-----------------------------------------------------------
-3-3-0----0-0-0---1-0-----------1-0------------------------
----------------------0-------------0----------0-----------
---------------------------------------------2-------------
-----------------------------------------------------------
-----------------------------------------------------------

 Em7              Am            C             G      
-----------------------------------------------------------
-3-3-0----0-0-0---1-0-----------1-0------------------------
----------------------0-------------0----------0-----------
---------------------------------------------2-------------
-----------------------------------------------------------
-----------------------------------------------------------
 Am               C             Em             G  
-----------------------------------------------------------
-1-1-1-1-0------1-1-1-1-0-3---1-0-1-0-----1-1-0----3-3-3-1-
-----------------------------------------------------------
-----------------------------------------------------------
-----------------------------------------------------------
-----------------------------------------------------------
 Am               C             Em             G   
-----------------------------------------------------------
-1-1-1-1-0------1-1-1-1-0-3---1-0-1-0-----1-1-0------------
-----------------------------------------------------------
-----------------------------------------------------------
-----------------------------------------------------------
-----------------------------------------------------------

   F             Am             Esus4             G  
-----------------------------------------------------
-----0-----------1-0------------0-0---1--3-1-0-------
-0-2---2-0-----------0------0-2----------------2--0--
-----------------------------------------------------
-----------------------------------------------------
-----------------------------------------------------
[ Tab from: http://www.guitartabs.cc/tabs/c/cure/last_day_of_summer_tab.html ]
  F             Am             Esus4             G   
-----------------------------------------------------
-----0-----------1-0------------0-0---1--3-1-0-------
-0-2---2-0-----------0------0-2----------------2--0--
-----------------------------------------------------
-----------------------------------------------------
-----------------------------------------------------

 Em7                            Am                
------------------------------------------------------
-8-8-8-8-7-----8-8-7----------------------------------
-----------7---------7----4-4-5-5-4-5-7-7--0--2-0-2-0-
------------------------------------------------------
------------------------------------------------------
------------------------------------------------------
C                                G 
-------------------------------------------------------------
---------------------------------8-8-8-8s10-10-10-10s12-12-12-
-2-4-4--4-5-5--5-7-7--7-4-0-0---7---------------------------
-------------------------------5------------------------------
-------------------------------------------------------------
-------------------------------------------------------------

Em7                            Am               
------------------------------------------------------
-12--------12-12-12-----------------------------------
----9---------------9-----4-4-5-5-4-5-7-7--0--2-0-2-0-
------------------------------------------------------
------------------------------------------------------
------------------------------------------------------

C                          G
--------------------------------------------------------------------
--------------------------8-8-8-10-10-10-12-12-12-13-13-13-15-15-15-
-2-4-4--4-5-5--5-7-7--7---------------------------------------------
--------------------------------------------------------------------
--------------------------------------------------------------------
--------------------------------------------------------------------


 

   Em7                 Am                  C                        G 
-------------------3-------------------5-------------------10-8-7------------------------
-3-5-3-5-3-5-3-5-3---3-5-3-5-3-5-3-5-3---3-5-3-5-3-5-3-5-3--------8----------------------
---------------------------------------------------------------------5-4-0-------------0-
----------------------------------------------------------------------------0------0h2---
-------------------------------------------------------------------------------0h2-------
-----------------------------------------------------------------------------------------

Em7                     Am            C             G 
----------------------------------------------------------------------------
--8-8-8-10-10-10-12-12-12--14----------------14-----------------------------
-7----------------------------12--11--12--12-----12--11--12--7--4-5-0-4-5-7-
----------------------------------------------------------------------------
----------------------------------------------------------------------------
----------------------------------------------------------------------------
Comments