Cure - Killing An Arab Chords & Tabs

 

Killing An Arab Chords & Tabs

Cure Chords & Tabs

Version: 1 Type: Bass Tab 0 ratings
1 star 2 stars 3 stars 4 stars 5 stars
comments

Killing An Arab Bass Tab

"Killing an Arab" by The Cure--bassline

from the 1978 'Peel Sessions' & '85's 'Staring at the Sea--The Singles' albums
I was in a Cure mood today, & decided to add this. I think a pick's being used.
Created July 16, 1999
Tabbed by: Raq, of course

figure 1--wait after guitar; let notes ring as you slide down, so don't let your fingers off the strings

[ Tab from: http://www.guitartabs.cc/tabs/c/cure/killing_an_arab_btab.html ]
G------7-------6--------5-------4-------3-------2----------|
D-9-9----8-8-----7-7-----6-6-----5-5-----4-4------3-3/6\-|
A-------------------------------------------------------------|
E-------------------------------------------------------------|


then just alternate between these 2 figures


G------------------------------|
D-2-2-2--2-2--2--2--2-3--5\-|
A------------------------------|
E------------------------------|


G-----------------------------|
D-7--7--7-7--7--7--7-8--9\-|
A-----------------------------|
E-----------------------------|


end with figure 1 

Visit me again!! www.geocities.com/sunsetstrip/lounge/9372
email me: roxy469@hotmail.com
contact me on AOL/Netscape Instant Messenger: Raquel246


Comments