Cure - Just Like Heaven Chords & Tabs

 

Just Like Heaven Chords & Tabs

Cure Chords & Tabs

Version: 2 Type: Tab 0 ratings
1 star 2 stars 3 stars 4 stars 5 stars
comments

Just Like Heaven Tab

   
The Cure - Just like Heaven
Please contact me for any comment: grilliestelle@hotmail.com


    A                 E                 Bm                D 

e --------------------------------------2-2-2-2--2-2-2----2--2-2-2-2-2-2------
B --------------------------------------3-3-3-3--3-3-3----3--3-3-3-3-3-3------
G --2-2-2-2--2-2-2----1--1-1-1-1-1-1----4-4-4-4--4-4-4----2--2-2-2-2-2-2------
D --2-2-2-2--2-2-2----2--2-2-2-2-2-2----4-4-4-4--4-4-4------------------------
A --4-4-4-4--4-4-4----2--2-2-2-2-2-2----2-2-2-2--2-2-2------------------------
E ----------------------------------------------------------------------------

SOLO

e ----------------------------------------------------------------------------
B ----------------------------------------------------------------------------
G --18-18-18-16-16-14---------------------------------------------------------
D ---------------------18-18-18-16-16-14--12-12-11-12-------------------------
A ----------------------------------------------------14--14-14-12-12-14------
E ----------------------------------------------------------------------------
[ Tab from: http://www.guitartabs.cc/tabs/c/cure/just_like_heaven_tab_ver_2.html ]
e ----------------------------------------------------------------------------
B ----------------------------------------------------------------------------
G --18-18-18-16-16-14---------------------------------------------------------
D ---------------------18-18-18-16-16-14--12-12-11-12-------------------------
A ----------------------------------------------------14--14-14-12-12-14------
E ----------------------------------------------------------------------------

e ----------------------------------------------------------------------------
B ----------------------------------------------------------------------------
G ----------------------------------------16-16-16-18-18-19--21-21-21-19-19-18
D ---------------------16-16-16-18-18-19--------------------------------------
A --16-16-16-17-17-19---------------------------------------------------------
E ----------------------------------------------------------------------------

e ----------------------------------------------------------------------------
B ----------------------------------------------------------------------------
G --18-18-18-16-16-14---------------------------------------------------------
D ---------------------18-18-18-16-16-14--12-12-11-12-------------------------
A ----------------------------------------------------14--14-14-12-12-14------
E ----------------------------------------------------------------------------
Comments