Cure - Just Like Heaven Chords & Tabs

 

Just Like Heaven Chords & Tabs

Cure Chords & Tabs

Version: 1 Type: Tab 0 ratings
1 star 2 stars 3 stars 4 stars 5 stars
comments

Just Like Heaven Tab

THE CURE

JUST LIKE HEAVEN

bass intro

e:--------0-0-0-0-0----------------------
a:--0-0-0-----------2-2-2-2--------------
d:--------------------------0-0-0-0-0-0--
g:---------------------------------------

then the guitar comes in playing A E Bmin D

riff 1

e:---------------------------------------------------------------
a:-----------------------------------------------------14-12-14--
d:--------------------18-18-18-16-16-14-12-12-12-11-12-----------
g:--18-18-18-16-16-14--------------------------------------------
b:---------------------------------------------------------------
e:---------------------------------------------------------------

riff 2
[ Tab from: http://www.guitartabs.cc/tabs/c/cure/just_like_heaven_tab.html ]
e:-------------------------------------------------------------------
a:--14-14-14---------------------------------------------------------
d:-----------11-12-14-14-14-14---------------------------------------
g:-----------------------------11-12-14-14-14-14---------------------
b:-----------------------------------------------11-12-14-18-18-18-16
e:-------------------------------------------------------------------

e:--------
a:--------
d:--------
g:--------
b:-16-14--
e:--------

play riff 1 two times then riff 2 then riff 1 again

play the chords A E Bmin D through the verse

the "you soft and lonely" part is F#min G F#min G F#min G D

then the piano solo thing

end on D

A -  0 0 2 2 2 0 

E -  0 2 2 1 0 0

Bmin - x 2 4 4 3 2

D - x x o 2 3 2

G - 3 2 0 0 3 3 

F#min - 2 4 4 2 2 2
 
tabbed by bigunbill@yahoo.com

if you want me to tab another song by anyone for bass or guitar,
email me and i will see what i can do

Keep on rockin
Comments