Cure - In Between Days Chords & Tabs

 

In Between Days Chords & Tabs

Cure Chords & Tabs

Version: 2 Type: Bass Tab

In Between Days Bass Tab

   
INBETWEEN DAYS
The Cure

Taken from the Elektra album The Head On The Door (1985)

Transcribed by: Damian Pamminger (TwitcheD_85@hotmail.com)

Standard tuning: E A D G

Fig. 1 (Intro)
|------------------------------------------------------------------------|
|------------------------------------------------------------------------|
|-------------5--5--5-5-5-4-4-------------5--5--5-5-5-7-7----------------|
|-5--5--5-5-5-----------------5--5--5-5-5-----------------5--5--5-5-5----|

|------------7-6------------------------------------|
|---------------------------------------------------|
|-5--5--5-5------4--------------5--5---5-5-5-7-7----|
| ------------------5--5--5-5-5---------------------|
[ Tab from: http://www.guitartabs.cc/tabs/c/cure/in_between_days_btab_ver_2.html ]
Fig. 2
|-------------------------------------------------------------|
|-------------------------------------------------------------|
| -------------5--5--5-5-5-7-7-------------5--5--5-5-5-4-4----|
|-5--5--5-5-5------------------5--5--5-5-5--------------------|

Fig. 3
|-------------------------------------------------------------|
|-------------------------------------------------------------|
|-2--2--2-2-2-----------------2--2--2-2-2---------------------|
|-------------0--0--0-0-0-0-0-------------0--0--0-0-0-0-0-----|

End
|---------------------------------------------------------|
|---------------------------------------------------------|
| -------------5--5--5-5-5-7-7-------------5--------------|
|-5--5--5-5-5------------------5--5--5-5-5----------------|