Cure - In Between Days Chords & Tabs

 

In Between Days Chords & Tabs

Cure Chords & Tabs

Version: 1 Type: Bass Tab 0 ratings
1 star 2 stars 3 stars 4 stars 5 stars
comments

In Between Days Bass Tab

Hope you enjoy it
In between days
22 July 1985
by The Cure 
(Smith)
from the album Staring at the sea - The singles
Transcribed by Luís Graça - Portugal

A very simple song. Hope you enjoy it. Any comments send to 1386@ufp.pt See ya.
[ Tab from: http://www.guitartabs.cc/tabs/c/cure/in_between_days_btab.html ]
Pattern 1
G|----------------------------------------------------------|
D|----------------------------------------------------------|
A|-----------------5--5--5--5-----------------------------|
E|---5--5--5--5--------------------------------------------|

Pattern 2
G|---------------------------------|
D|---------------------------------|
A|------------------7--7--7--7---|
E|---7--7--7--7-------------------|


Pattern 1 - X8
Pattern 2 - X2
Pattern 1 - X12
Pattern 2 - X2
Pattern 1 - X12
Pattern 2 - X2
Pattern 1 - X12
 _______________________________________________________________________
|			"Oh my little girly friend...!"			|
|						- Tama			|
|_______________________________________________________________________|
Comments