Cure - How Beautiful You Are Chords & Tabs

 

How Beautiful You Are Chords & Tabs

Cure Chords & Tabs

Version: 1 Type: Bass Tab 0 ratings
1 star 2 stars 3 stars 4 stars 5 stars
comments

How Beautiful You Are Bass Tab

   
Standard Tuning

Intro
G:12-14-14-14-12/14-16------------|
D:--------------------14-14-12-14-|
A:--------------------------------|
E:--------------------------------|

G:-------------------------------|
D:-------------14-12-14-12-14----|
A:-12-12-12-12-------------------|
E:-------------------------------|
           Play 3 times

G:12-14-14-14-12/14-16------------|
D:--------------------14-14-12-14-|
A:--------------------------------|
E:--------------------------------|

G:-------------------------------|
D:-------------------------------|
A:-12-------------------3-2------|
E:--------------------0----------|

Riff 1
G:-------------------------------|
D:-------------------------------|
A:-0-0---0---0-5-5-5-5-5-5-5-7-7-|
E:-----3---3---------------------|
[ Tab from: http://www.guitartabs.cc/tabs/c/cure/how_beautiful_you_are_btab.html ]
G:--------------------------------|
D:--------------------------------|
A:3-3-2-3-2-3-5-5-5-7-7-7-7-10-10-|
E:--------------------------------|

Riff 2
G:-------------------------------|
D:-------------------------------|
A:-2-2-0-2-0-2-0-0-0-0-0-0-0---0-|
E:---------------------------3---|
        Play 3 times

G:-------------------------------|
D:-------------------------------|
A:-2-2-0-2-0-2-2-2-2-3-3-3-3-5-5-|
E:-------------------------------|

Riff 3
G:-------------------------------|
D:-------------------2-2-2-2-0-0-|
A:-------------------------------|
E:-5-5-3-5-3-5-0-0-0-------------|

G:-------------------------------|
D:-------------------------------|
A:-------------------------------|
E:-1-1-0-1-0-1-1-1-1-3-3-3-3-3-3-|

Riff 4
G:-------------------2-2-2-2-0-0-|
D:-------------------------------|
A:-5-5-3-5-3-5-0-0-0-------------|
E:-------------------------------|
Comments