Cure - Hot Hot Hot Chords & Tabs

 

Hot Hot Hot Chords & Tabs

Cure Chords & Tabs

Version: 2 Type: Bass Tab 0 ratings
1 star 2 stars 3 stars 4 stars 5 stars
comments

Hot Hot Hot Bass Tab

"Hot Hot Hot" by the Cure--Bassline


a pretty simple bassline, I just think it's cool cuz of the sliding & stuff, not to mention it's by my all-time favorite band, so if you love the bass & the Cure as much as I do, you'll know why it's here...so enjoy!!


4/4 time
\=slide down
/=slide up
^=hammer on


wait for guitar intro stuff, then I slide down from 7th fret on A string, although he might be sliding down from something else


figure 1

[ Tab from: http://www.guitartabs.cc/tabs/c/cure/hot_hot_hot_btab_ver_2.html ]
G---------------|---------------------|
D---------------|---------------------|
A---------------|-----------3-3-5^7-|
E-5-5-5\--5-3-|-1-1/5-5-----------|


figure 2--watch out for the rest in the 2nd bar on the 1st downbeat


G----------------|--------------------|
D----------------|--------------5^7-|
A-5-5-5\--3^5-|--7-7-7-7-7------|
E----------------|---------------------|


back to figure 1 & just alternate between the 2 figures...if you know the song, you know what to do :)


Comments