Cure - High Chords & Tabs

 

High Chords & Tabs

Cure Chords & Tabs

Version: 1 Type: Bass Tab

High Bass Tab

   
HIGH
The Cure

Taken from the Elektra/Fiction album Wish (1992)

Transcribed by: Damian Pamminger (TwitcheD_85@hotmail.com)

Standard tuning: E A D G

Fig. 1a (Intro)
|-----------------------------------------------------------------------------|
| -------------------------------------------------------------2--2--2-2--2-2-|
| 4-------2-------0-------2-------4-------2-------0---------------------------|
|-------------------------------------------------------7-\--0----------------|

|------|
|-2--2-|
|------|
|------|

Fig. 1b (Main riff)
|-------------------------------------------------------------------------------|
|-------------------------------------------------------------------------------|
| -4--4--4--4-4--4-4--4--4--2--2--2--2-2--2-2--2--2--0--0--0--0-0--0-0--0--0----|
|-------------------------------------------------------------------------------|

| ------------------------------------------------------------------------------|
| ------------------------------------------------------------------------------|
|-2--2--2--2-2--2-2--2--2--4--4--4--4-4--4-4--4--4--2--2--2--2-2--2-2--2--2-----|
| ------------------------------------------------------------------------------|

| ------------------------------------------------------|
| ------------------------------2--2--2-2--2-2--2--2----|
| -0--0--0--0-0--0-0------------------------------------|
|---------------------7--7-\-0--------------------------|
[ Tab from: http://www.guitartabs.cc/tabs/c/cure/high_btab.html ]
Fig. 2a (1st Chorus)
| ------------------------------------------------------------------------------|
| ------------------------------------------------------------------------------|
|-4--4--4--4-4--4-4--4--4-------------------------------------------------------|
|---------------------------3--3--3--3-3--3-3--3--3--5--5--5--5-5--5-5--5--5----|

|-------------------------------------------------------------------------------|
|-------------------------------------------------------------------------------|
|---------------------------4--4--4--4-4--4-4--4--4-----------------------------|
|-3--3--3--3-3--3-3--3--3----------------------------3--3--3--3-3--3-3--3--3----|

|----------------------------------------|
|------------------------------2---------|
|----------------------------------------|
|-5--5--5--5-5--5-5--5--5--0-------------|

Fig. 2b (2nd/Last Chorus)
| ------------------------------------------------------------------------------|
| ------------------------------------------------------------------------------|
|-4--4--4--4-4--4-4--4--4-------------------------------------------------------|
|---------------------------3--3--3--3-3--3-3--3--3--5--5--5--5-5--5-5--5--5----|

|-------------------------------------------------------------------------------|
|-------------------------------------------------------------------------------|
|---------------------------4--4--4--4-4--4-4--4--4-----------------------------|
|-3--3--3--3-3--3-3--3--3----------------------------3--3--3--3-3--3-3--3--3----|

| ------------------------|
| ------------------------|
| ------------------------|
|-5--5--5--5-5--5-5--5----|

End:
|------------|
|------------|
|-7----------|
|------------|