Cure - Hanging Garden Chords & Tabs

 

Hanging Garden Chords & Tabs

Cure Chords & Tabs

Version: 1 Type: Bass Tab 0 ratings
1 star 2 stars 3 stars 4 stars 5 stars
comments

Hanging Garden Bass Tab

   
Standard tuning

Intro
G|---|
D|---|
A|-5-|
E|---|

G|--------------------------------------------|
D|-------------------------------5-5-5--7-7-7-|
A|-5--5-5-5-5--5-5-5-5-5--3-3-3---------------|
E|--------------------------------------------|

G|---------------------------------------------------|
D|---------------------------------------------------|
A|-5-5-5-5-5-5-5-5-5-5--8-8-8-8-8--10-10-10-10-10-10-|
E|---------------------------------------------------|

Verse
G|--------------------------------------------|
D|-------------------------------5-5-5--7-7-7-|
A|-5--5-5-5-5--5-5-5-5-5--3-3-3---------------|
E|--------------------------------------------|

G|---------------------------------------------------|
D|---------------------------------------------------|
A|-5-5-5-5-5-5-5-5-5-5--8-8-8-8-8--10-10-10-10-10-10-|
E|---------------------------------------------------|

G|--------------------------------------------|
D|-------------------------------5-5-5--7-7-7-|
A|-5--5-5-5-5--5-5-5-5-5--3-3-3---------------|
E|--------------------------------------------|

G|---------------------------------------------------|
D|---------------------------------------------------|
A|-5-5-5-5-5-5-5-5-5-5--8-8-8-8-8--10-10-10-10-10-10-|
E|---------------------------------------------------|

G|--------------------------------------------|
D|-------------------------------5-5-5--7-7-7-|
A|-5--5-5-5-5--5-5-5-5-5--3-3-3---------------|
E|--------------------------------------------|

G|---------------------------------------|
D|---------------------------------------|
A|-5-5-5-5-5-5-5-5-5-5-------------------|
E|----------------------6-6-6-6--8-8-8-8-|

Chorus
G|---------------------------------------|
D|---------------------------------------|
A|---------------------------------------|
E|-5-5-5-5-5-5--6-6-6-6--8-8-8--10-10-10-|

G|----------------------------------------------------|
D|----------------------------------------------------|
A|----------------------12-12-12-12-12-12-12-12-12-12-|
E|-5-5-5-5-5-5-5-5-5-5--------------------------------|

G|------------------------------------------|
D|------------------------------------------|
A|-5-5-5-5-5-5-5-5-5-5--3-3-3-3-3-3-3-3-3-3-|
E|------------------------------------------|

G|--------------------------------------------|
D|-------------------------------5-5-5--7-7-7-|
A|-5--5-5-5-5--5-5-5-5-5--3-3-3---------------|
E|--------------------------------------------|
[ Tab from: http://www.guitartabs.cc/tabs/c/cure/hanging_garden_btab.html ]
G|---------------------------------------------------|
D|---------------------------------------------------|
A|-5-5-5-5-5-5-5-5-5-5--8-8-8-8-8--10-10-10-10-10-10-|
E|---------------------------------------------------|

G|--------------------------------------------|
D|-------------------------------5-5-5--7-7-7-|
A|-5--5-5-5-5--5-5-5-5-5--3-3-3---------------|
E|--------------------------------------------|

G|---------------------------------------|
D|---------------------------------------|
A|-5-5-5-5-5-5-5-5-5-5-------------------|
E|----------------------6-6-6-6--8-8-8-8-|

G|---------------------------------------|
D|---------------------------------------|
A|---------------------------------------|
E|-5-5-5-5-5-5--6-6-6-6--8-8-8--10-10-10-|

G|----------------------------------------------------|
D|----------------------------------------------------|
A|----------------------12-12-12-12-12-12-12-12-12-12-|
E|-5-5-5-5-5-5-5-5-5-5--------------------------------|

G|-------------------------------|
D|-------------------------------|
A|-10-10-10-10-10-10-10-10-10-10-|
E|-------------------------------|

G|------------------------------------------|
D|------------------------------------------|
A|-5-5-5-5-5-5-5-5-5-5--8-8-8-8-8-8-8-8-8-8-|
E|------------------------------------------|
2 times

G|------------------------------------------|
D|------------------------------------------|
A|-5-5-5-5-5-5-5-5-5-5--8-8-8-8-8-8-8-8-8-8-|
E|------------------------------------------|

G|---------------------------------------|
D|---------------------------------------|
A|-10-10-10-10-10--12-12-12--13-13-13--5-|
E|---------------------------------------|

G|--------------------------------------------|
D|-------------------------------5-5-5--7-7-7-|
A|-5--5-5-5-5--5-5-5-5-5--3-3-3---------------|
E|--------------------------------------------|

G|---------------------------------------------------|
D|---------------------------------------------------|
A|-5-5-5-5-5-5-5-5-5-5--8-8-8-8-8--10-10-10-10-10-10-|
E|---------------------------------------------------|

G|--------------------------------------------|
D|-------------------------------5-5-5--7-7-7-|
A|-5--5-5-5-5--5-5-5-5-5--3-3-3---------------|
E|--------------------------------------------|

G|---------------------------------------|
D|---------------------------------------|
A|-5-5-5-5-5-5-5-5-5-5-------------------|
E|----------------------6-6-6-6--8-8-8-8-|

G|--------------------------------------------|
D|-------------------------------5-5-5--7-7-7-|
A|-5--5-5-5-5--5-5-5-5-5--3-3-3---------------|
E|--------------------------------------------|
4 times

G|------------------------------------------|
D|------------------------------------------|
A|-5-5-5-5-5-5-5-5-5-5--3-3-3-3-3-3-3-3-3-3-|
E|------------------------------------------|
4 times

Outro
G|---|
D|---|
A|-5-|
Comments