Cure - Friday Im In Love Chords & Tabs

 

Friday Im In Love Chords & Tabs

Cure Chords & Tabs

Version: 2 Type: Tab 0 ratings
1 star 2 stars 3 stars 4 stars 5 stars
comments

Friday Im In Love Tab

Submitter: Ana G.
Artist: The Cure
Song: Friday I'm in love (intro)

e|-----0--2--0----0-----------------------------------------------|
B|---3---------3--------------------------------------------------|
G|-0--------------------------------------------------------------|
D|----------------------------------------------------------------|
A|----------------------------------------------------------------|
E|----------------------------------------------------------------|


e|-2-2-2-2-2-3-2-0-2----------------------------------------------|
B|----------------------------------------------------------------|
G|----------------------------------------------------------------|
D|----------------------------------------------------------------|
A|----------------------------------------------------------------|
E|----------------------------------------------------------------|

[ Tab from: http://www.guitartabs.cc/tabs/c/cure/friday_im_in_love_tab_ver_2.html ]
e|-2-2-2-2-2-5-5-3-2-0--------------------------------------------|
B|----------------------------------------------------------------|
G|----------------------------------------------------------------|
D|----------------------------------------------------------------|
A|----------------------------------------------------------------|
E|----------------------------------------------------------------|


e|-2-2-2-2-2-3-2-0-2----------------------------------------------|
B|----------------------------------------------------------------|
G|----------------------------------------------------------------|
D|----------------------------------------------------------------|
A|----------------------------------------------------------------|
E|----------------------------------------------------------------|


e|----------------------------------------------------------------|
B|-2-3------------------------------------------------------------|
G|-----2-2-4-2----------------------------------------------------|
D|----------------------------------------------------------------|
A|----------------------------------------------------------------|
E|----------------------------------------------------------------|

Enjoy!
Comments