Cure - Fire In Cairo Chords & Tabs

 

Fire In Cairo Chords & Tabs

Cure Chords & Tabs

Version: 1 Type: Tab 0 ratings
1 star 2 stars 3 stars 4 stars 5 stars
comments

Fire In Cairo Tab

   
Tuning
Standard (e,B,G,D,A,e)

Intro
    F       F#
e|---------------------|
B|--6-6-6-6/7-7-7-7-7--|
G|--5-5-5-5/6-6-6-6-6--|
D|--3-3-3-3/4-4-4-4-4--|
A|---------------------|
E|---------------------|

Verse:
   Bbm    G#      Bbm    G#       F#  
e|-----6------4---------------------2---2----2---2--|
B|-----6------4------7------4-------2---2----2---2--|
G|-------------------7------5-------3---3----3---3--|
D|-8------6-------8------6--------4---4----4---4----|
A|--------------------------------------------------|
E|--------------------------------------------------|

   e        F           e      F
   See your head in the fading light
e|-------------------------------------------|
B|-------------------------------------------|
G|-------------------------------------------|
D|-2--2-2-2-3---3--3----2--2-2-3-3--3--------|
A|-3--3-3-3-4---4--4----3--3-3-4-4--4--------|
E|-------------------------------------------|
         e         F         e           F
  And through the dark your eyes shine bright
e|----------------------------------------------|
B|----------------------------------------------|
G|----------------------------------------------|
D|-------2--2-2-2--3---3--3--2--2-2-----3-3--3--|
A|-------3--3-3-3--4---4--4--3--3-3-----4-4--4--|
E|----------------------------------------------|
[ Tab from: http://www.guitartabs.cc/tabs/c/cure/fire_in_cairo_tab.html ]
Outro:
   F                F# G#  
   F-I-R-e-I-N-C-A-I-R-O
e|-------------------------|
B|-6-6-6-6-6-6-6-6--7-9----|
G|-5-5-5-5-5-5-5-5--6-8----|
D|-3-3-3-3-3-3-3-3--4-6----|
A|-------------------------|
E|-------------------------|
F                F# G#  
F-I-R-e-I-N-C-A-I-R-O
F                F# G#  
F-I-R-e-I-N-C-A-I-R-O
e                             F
And the heat disapear and the mirror fades away

===

Lyric:
Slowly fading blue
The eastern hollows catch
The dying sun
Night-time follows 
Silence and black
Mirror pool mirrors
The lonely place
Where I meet you

See your head
In the fading light
And through the dark
Your eyes shine bright

And burn
Like fire
Burn like fire in Cairo
Burn like fire
Burn like fire in Cairo

Shifting crimson veil
Silken hips slide
Under my hand
Swollen lips whisper
My name
And I yearn
You take me in your arms
And start to burn

FIREINCAIRO
FIREINCAIRO
FIREINCAIRO
Then the heat disappears
And the mirage
Fades away

FIREINCAIRO
FIREINCAIRO
FIREINCAIRO
FIREINCAIRO
FIREINCAIRO
FIREINCAIRO
FIREINCAIRO
FIREINCAIRO

Burn like a fire in Cairo
Burn like a
Fire
Blaze like a fire in Cairo
Blaze like a
Fire
Flare
Burn like fire
Burn like
Fire in Cairo

==

That's it. I think it sounds pretty good.
Corrections: the_unplugged_hobbit@hotmail.com
Diego Perri
Comments