Cure - End Chords & Tabs

 

End Chords & Tabs

Cure Chords & Tabs

Version: 1 Type: Bass Tab 0 ratings
1 star 2 stars 3 stars 4 stars 5 stars
comments

End Bass Tab

From: gobeirne@tartarus.uwa.edu.au (Greg O'Beirne)
Newsgroups: alt.guitar.bass
Subject: BTAB: End (The Cure)

  -===------========----------------------------------------------
   End  by  The Cure  (Smith, Gallup, Thompson, Williams, Bamonte)
  -===------========----------------------------------------------

** WARNING:  I don't play bass, I play guitar. This is how I play
             it on a normal 6-stringed beastie.

Bass tabbed for guitar by Greg O'Beirne - gobeirne@lethe.uwa.edu.au


E -----------------------------------------------------------------
B -----------------------------------------------------------------
G -----0-------0-------0-------0-------0-------0-------0-------0---
D -----------------------------------------------------------------
A -3-3---3/5-5---5\3-3---3/5-5---5\3-3---3/5-5---5\1-1---111-1---1/
E -----------------------------------------------------------------
[ Tab from: http://www.guitartabs.cc/tabs/c/cure/end_btab.html ]
E -----------------------------------------------------------------
B -----------------------------------------------------------------
G -----0-------0-------0-------0-------0-------0-------0-------0---
D -----------------------------------------------------------------
A -3-3---3/5-5---5\3-3---3/5-5---5\3-3---3/5-5---5/6-6---666-6---6/
E -----------------------------------------------------------------

E -----------------------------------------------------------------
B -------------------------------------0---------------------------
G -----0-------0-------0-------0---------------0-------0-------0---
D -----------------------------------------------------------------
A -1-1---111-1---1/3-3---333-3---3\--------------------------------
E ---------------------------------3-3---3\1-1---1/6-6---666-6---6\

E ---------------------------------
B -----0---------------------------  \
G -------------0-------0-------0---   Repeat
D ---------------------------------   This Bit
A ---------------------------------  /
E -3-3---3\1-1---1/6-6---66666---6\



Hope that's right :)

--
Greg O'Beirne
gobeirne@lethe.uwa.edu.au


Comments