Cure - Before Three Chords & Tabs

 

Before Three Chords & Tabs

Cure Chords & Tabs

Version: 1 Type: Tab 0 ratings
1 star 2 stars 3 stars 4 stars 5 stars
comments

Before Three Tab

----------------------------------------------------------------------------Before Three
----------------------------------------------------------------------------

Artist_:     The Cure
Album_:      The Cure
Tabbed By:   river_of_souls (A.A.C.)
Part:        Intro/Main Riff (Soon the rest of the song) 

*Hereís my first tab. Iím 100% sure what this is correct.

e|:|------------------------------------------------------------------////
B|:|------------------------------------------------------------------////
G|:|------------------------------------------------------------------////
D|:|-12-12-12-12-12-10-10-10-9-9-9-9-9-7-7-7-12-12-12-12-12-14-14-14--////
A|:|------------------------------------------------------------------////
E|:|------------------------------------------------------------------////

////----------------------------------------------------------------|
////----------------------------------------------------------------|
////----------------------------------------------------------------|
////-7-7-7-7-7-5-5-5-4-4-4-4-4-2-2-2-0-0-0-0-0----------------------|
////-------------------------------------------3-3-3----------------|
////----------------------------------------------------------------|
[ Tab from: http://www.guitartabs.cc/tabs/c/cure/before_three_tab.html ]
e|:|------------------------------------------------------------------////
B|:|------------------------------------------------------------------////
G|:|------------------------------------------------------------------////
D|:|-12-12-12-12-12-10-10-10-9-9-9-9-9-7-7-7-12-12-12-12-12-14-14-14--////
A|:|------------------------------------------------------------------////
E|:|------------------------------------------------------------------////

////------------------------------------------------------------------////
////------------------------------------------------------------------////
////------------------------------------------------------------------////
////-7-7-7-7-7-5-5-5-12-12-12-12-12-10-10-10-9-9-9-9-9-7-7-7-12-12-12-////
////------------------------------------------------------------------////
////------------------------------------------------------------------////

////---------------------------------------------------------------------|
////---------------------------------------------------------------------|
////---------------------------------------------------------------------|
////-12-12-14-14-14-7-7-7-7-7-5-5-5-4-4-4-4-4-2-2-2-0-0-0-0-0-------0~~~-|
////----------------------------------------------------------3-3-3-0~~~-|
////---------------------------------------------------------------------|

Repeat all the times that it will be necessary.


Comments