Cure - Another Journey By Train Chords & Tabs

 

Another Journey By Train Chords & Tabs

Cure Chords & Tabs

Version: 1 Type: Bass Tab 0 ratings
1 star 2 stars 3 stars 4 stars 5 stars
comments

Another Journey By Train Bass Tab

   
Part 1-a
G|-----------------------------------------|
D|-----------------3-3-2-2-0-0-2-2---------|
A|-5-5-3-5--5-3-5--------------------------|
E|-----------------------------------------|

Part 1-b
G|-----------------------------------------|
D|-----------------------------------------|
A|-1-1-0-1--1-0-1-------0-0-1-1-3-3--------|
E|-----------------3-3---------------------|

Part 2
G|--------------------------------------------------------|
D|--------------------------------------------------------|
A|-------------------5-5-5-5-5-5-5-5--1-1-1-1-1-1-1-1-1---|
E|--5-5-5-5-5-5-5-5---------------------------------------|

G|--------------------------------------------------------|
D|--2-2-2-2-2-2-2-2---------------------------------------|
A|-------------------0-0-0-0-0-0-0-0--7-5-4-5-4-----------|
E|-----------------------------------------------7-5-7----|

Part 3
G|--------------------------------------------------------|
D|--------------------------------------------------------|
A|------------------5-5-5-5-5-5-5-5--1-1-1-1-1-1-1-1------|
E|-5-5-5-5-5-5-5-5----------------------------------------|

G|--------------------------------------------------------|
D|--2-2-2-2-2-2-2-2---------------------------------------|
A|-------------------0-0-0-0-0-0-0-0--3-0-5-0-3-2-0-------|
E|--------------------------------------------------------|
[ Tab from: http://www.guitartabs.cc/tabs/c/cure/another_journey_by_train_btab.html ]
G|--------------------------------------------------------|
D|--------------------------------------------------------|
A|--------------------------------------------------------|
E|-3-3-3-3-3-3-3-3--5-5-5-5-5-5-5-5--1-1-1-1-1-1-1-1------|

G|--------------------------------------------------------|
D|-3-3-2-2-0-0--------------------------------------------|
A|-------------3-3------------------1-1-1-1-1-1-1-1-------|
E|-----------------0-0-0-0-0-0-0-0------------------------|

G|--------------------------------------------------------|
D|--------------------------0-0-2-2-----------------------|
A|-0-0-0-0-0-0-0-0--1-1-3-3-------------------------------|
E|-----------------------------------3-3-3-3-3-3-3-3-3-3--|

G|--------------------------------------------0-0-2-2-----|
D|-----------------------------------2-2-3-3--------------|
A|--------------------------------------------------------|
E|-1-1-1-1-1-1-1-1--0-0-0-0-0-0-0-0-----------------------|




G|----------------------------------------|
D|----------------------------------------|
A|-1-1-1-1-1-1-1-1--0--0--1-1-3-----------|
E|----------------------------------------|

Outro

G|----------------------------------------|
D|-----------------3-3-2-2-0-0-2-2--------|
A|-5-5-3-5--5-3-5-------------------------|
E|----------------------------------------|

G|----------------------------------------|
D|-----------------3-3-2-2-0-0-2-2--------|
A|-1-1-(0)-1-1-(0)------------------------|
E|----------------------------------------|

G|----------------------------------------|
D|-----------------3-3-2-2-0-0-2-2--------|
A|-3-3-(0)-3-3-(0)--------------------5---|
E|----------------------------------------|
Comments