Cure - A Strange Day Chords & Tabs

 

A Strange Day Chords & Tabs

Cure Chords & Tabs

Version: 2 Type: Bass Tab

A Strange Day Bass Tab

   
A STRANGE DAY
The Cure

Taken from the Fiction/Elektra/Rhino album Pornography (1982/2005 Reissue)

Transcribed by: Damian Pamminger (TwitcheD_85@hotmail.com)

Standard tuning: E A D G

Fig. 1a
|---------------------------------------------------------------------|
|---------------------------------------------------------------------|
|-0-0---0-0-0---0-2-2---2-2-2-3-2-------------------------------------|
|----------------------------------3-3---3-3-3---3-3-3---3-3-3-3-3----|
[ Tab from: http://www.guitartabs.cc/tabs/c/cure/a_strange_day_btab_ver_2.html ]
Fig. 1b
|---------------------------------------------------------------------|
|---------------------------------------------------------------------|
| -0-0---0-0-0---0-2-2---2-2-2-3-2-----------------------------3-2----|
|----------------------------------3-3---3-3-3---3-3-3---3-3-3--------|

Fig. 2
| ---------------------------------------------------------------------|
| ---------------------------------------------------------------------|
|------------------------------3-2------------------------------3-2----|
| -1-1---1-1-1---1-1-1---1-1-1-----3-3---3-3-3---3-3-3---3-3-3---------|

Fig. 3
| ---------------------------------------------------------------------|
| ---------------------------------------------------------------------|
|------------------------------3-2------------------------------3-2----|
| -0-0---0-0-0---0-0-0---0-0-0-----1-1---1-1-1---1-1-1---1-1-1---------|