Cure - A Letter To Elise Chords & Tabs

 

A Letter To Elise Chords & Tabs

Cure Chords & Tabs

Version: 2 Type: Tab 0 ratings
1 star 2 stars 3 stars 4 stars 5 stars
comments

A Letter To Elise Tab

   
The cure - A letter to Elise
Wish

Tabbed by: nal1200 (nal1200@cox.net)

Intro:
E--------------------------------------------------------------------------|
B--------------------------------------------------------------------------|
G--4--66-4-6-4-6-4-6----4-66--4-6-4-6-4-6----4-66--4-6-4-6-4-6--6-77777-6-2|
D--------------------------------------------------------------------------|
A--------------------------------------------------------------------------|
E--------------------------------------------------------------------------|

Riff A:
E--------------------5------------------2--------------------------------|
B--5555--2-2-0-22-0----5555--2-2-0-22-0---5555--2-2-0-22-0-2-3333-3-2----|
G---------------------------------------------------------------------2--|
D------------------------------------------------------------------------|
A------------------------------------------------------------------------|
E------------------------------------------------------------------------|

Verse ( I made this up, play as whole notes):
E--------0~----2~--------------------------------|
B--2~----------------3~--------------------------|
G------------------------------------------------|
D------------------------------------------------|x2
A------------------------------------------------|
E------------------------------------------------|

(Riff A)

(Verse, but instead of two times, play three times)

Riff B:
E--------0~----2~----4~-5~---------5~-------5~-------5~--|
B--2~-------------------------2~--------2~-------2~------|
G--------------------------------------------------------|
D--------------------------------------------------------|
A--------------------------------------------------------|
E--------------------------------------------------------|
[ Tab from: http://www.guitartabs.cc/tabs/c/cure/a_letter_to_elise_tab_ver_2.html ]
E---7~---------7~-----------7~-----------5~--------------|
B--------2~----------2~-----------2~-----------2~--------|
G--------------------------------------------------2~----|
D--------------------------------------------------------|
A--------------------------------------------------------|
E--------------------------------------------------------|

Solo:
E---------------------------------------------------------------------|
B-------------------------------------------------------77-99-10--77--|
G--4/6-77-6-7-999--4/6-77-6-7-9-9-99----4/6-77--6-7-99----------------|
D---------------------------------------------------------------------|
A---------------------------------------------------------------------|
E---------------------------------------------------------------------|

E--------------------------------------44-5555--77-55-7777-9999-10-7-7-|
B------------------7-7--999-10-10-7-7----------------------------------|
G--4/6-77-6-7-999------------------------------------------------------|
D----------------------------------------------------------------------|
A----------------------------------------------------------------------|
E----------------------------------------------------------------------|

Riff C:
E---12-12-12-12-9-9--7--99---12-12-12-12-9-9--7--99-------|
B---------------------------------------------------------|
G---------------------------------------------------------|
D---------------------------------------------------------|
A---------------------------------------------------------|
E---------------------------------------------------------|

E---12-12-12-12-9-9--7--99-7-9-10-10-101010--10--9--5--|
B------------------------------------------------------|
G------------------------------------------------------|
D------------------------------------------------------|
A------------------------------------------------------|
E------------------------------------------------------|

(Verse repeat twice like the first time)

Outro:
E--------------------|  ----------12~--|
B--5~--7~--9~--10~---|  ------5~-------|
G--------------------|  --2~-----------|
D--------------------|x2---------------|
A--------------------|  ---------------|
E--------------------|  ---------------|
Comments