Cure - 10-15 Saturday Night Chords & Tabs

 

10-15 Saturday Night Chords & Tabs

Cure Chords & Tabs

Version: 4 Type: Tab

10-15 Saturday Night Tab

   
Keep pressing down
e-10---8---6--|
B-10---8---6--|[play each 8x]
G-10---9---7--|
D-------------|
A-------------|
E-------------|
Harmonics
e--------------------|
B--------------------|
G---------------(7~)-|
D--(12~)--(7~)-------|
A--------------------|
E--------------------|

or you can play an open A and G
e--4---|      e--3--x---3|
B--5---|      B--3--x---3|
G--6---|      G--4--x---4|
D--7---| X6   D--5--x---5|    X6
A--7---|      A--5--x---5|
E--5---|      E--3--x---3|
                 Normal
verse
keep pressing down on the F & the E chord
   F         E
e--1--|   e--0--|
B--1--|   B--0--|
G--2--|   B--1--|
D--3--|   D--2--|
A--3--|   A--2--|
E--1--|   E--0--|
[ Tab from: http://www.guitartabs.cc/tabs/c/cure/10_15_saturday_night_tab_ver_4.html ]
SOLO                                Ends with this
e----------------------------|      e------------|
B----------------------------|      B------------|
G----------------------------|      G------------|
D--13-12-10-12b-10-----------| X3   D-13-12-10-9-|
A------------------12b-10-12-|      A------------|
E----------------------------|      E------------|
It varies from that
e------------------|
B------------------|
G------------------|
D--15--15--14--14--|
A--15-15---14-14---|
E------------------|
2 solo
e----------------------------------------|
B----------------------------------------|
G----------------------------------------|
D--7-9-10-9-10-12-10-9-10-12-15-9-10-9-7-|
A--0-0--0-0--0--0--0-0--0--0--0-0--0-0-0-|
E----------------------------------------|

harmonics

e--------------------|
B--------------------|
G-----(7)----(7)-----|
D--(7)----(7)---(12)-|  3X
A--------------------|
E--------------------|