Cure - 10-15 Saturday Night Chords & Tabs

 

10-15 Saturday Night Chords & Tabs

Cure Chords & Tabs

Version: 3 Type: Tab

10-15 Saturday Night Tab

E---5--3--------------------------------------------------------------------|
B---6--5--5-----------------------------------------------------------------|
G---7--5--7-----------------------------------------------------------------|
D---------7-----------------------------------------------------------------|
A---------------------------------------------------------------------------|
E---------------------------------------------------------------------------|

thats the chords but each chord is played more 4 beats to a bar and each chord
worth half a beat (i think). while harmonics are played over it like..
[ Tab from: http://www.guitartabs.cc/tabs/c/cure/10_15_saturday_night_tab_ver_3.html ]
E---------------------------------------------------------------------------|
B---------------------------------------------------------------------------|
G------------7-----7--------------------------------------------------------|
D---12---7-------7---7---12-------------------------------------------------|
A---------------------------------------------------------------------------|
E---------------------------------------------------------------------------|

    Then you got the cool chorus which is.........


E---5---3-------------------------------------------------------------------|
B---5---3------------------- -----------------------------------------------|
G---6---4-------------------------------------------------------------------|
D---7---5-------------------------------------------------------------------|
A---7---5-------------------------------------------------------------------|
E---5---3-------------------------------------------------------------------|

 and then..   (wating for the telephone to ring)

E---1-----------------------------------------------------------------------|
B---1-----------------------------------------------------------------------|
G---2---1-------------------------------------------------------------------|
D---3---2-------------------------------------------------------------------|
A---3---2-------------------------------------------------------------------|
E---1-----------------------------------------------------------------------|

   you can work out the timing right? cool!