Curbside - Epidemic Chords & Tabs

 

Epidemic Chords & Tabs

Curbside Chords & Tabs

Version: 1 Type: Bass Tab 0 ratings
1 star 2 stars 3 stars 4 stars 5 stars
comments

Epidemic Bass Tab

Epidemic by Curbside

Verse
G-----------------------------------
D--3-3---3--------------------------    x 2
A---------3-3---3-4-4---4--3333-----
E-----------------------------------

G-----------------------------------
D--3-3---3--------------------------
A---------3-3---3-4-4--4-343--------
E-----------------------------------

G-----------------------------------
D--3-3---3--------------------------
A---------3-3---3--4-4--431---------
E---------------------------431-----
[ Tab from: http://www.guitartabs.cc/tabs/c/curbside/epidemic_btab.html ]
Chorus
G-----------------------------------
D-----------------------------------   x 4
A--3-333----------------------------
E---------3-333-4-4x4x4x4x4---------

Verse
Chorus

Bridge
G-----------------------------------------------------------
D--3--333--3-333--------------3-333--3-333------------------
A----------------4-444-4-444----------------4-444-3-333-----
E-----------------------------------------------------------

Chorus

Outro
G---------------------------------------------
D--3-3---3------------------------3~~~--------
A---------3-3---3-4-4---4--3-3-3-3------------
E---------------------------------------------
Comments