Culture Club - Karma Chameleon Chords & Tabs

 

Karma Chameleon Chords & Tabs

Culture Club Chords & Tabs

Version: 1 Type: Tab

Karma Chameleon Tab

Band: Culture Club
Song: Karma Chameleon


tabbed by jam9383@yahoo.com


Intro

e-----------------------------------------------------------------|
B-----------------------------------------------------------------|
G-----------------------------------------------------------------|
D-----------------------------------------------------------------|
A--8---8---8---6-5-6-5-------1--1--------1--1---------------------|
E-----------------------1h3---------1h3---------------------------|

Verse Guitar

e-----------------------------------------------------------------|
B-----------------------------------------------------------------|
G-----------------------------------------------------------------|
D-------------------------------8---------------------------------|
A-8-10-10-8--3-5-5-3----10-10-8---10-10-8-------------------------|
E--------------------6--------------------------------------------|

Verse Chords

e--6--x--6-6-6--8---x---8--8--8--6--x--6-6-6--6--x--6-6-6---------|
B--6--x--6-6-6--10--x--10-10-10--6--x--6-6-6--6--x--6-6-6---------|
G--7--x--7-7-7--10--x--10-10-10--7--x--7-7-7--7--x--7-7-7---------|
D-----------------------------------------------------------------|
A-----------------------------------------------------------------|
E-----------------------------------------------------------------|

Bridge\2nd Part of Verse Chords

e--6--x--6-6-6---6--x--6-6-6--8---x--8--8--8---8---x--8--8--8-----|
B--8--x--8-8-8---8--x--8-8-8--10--x--10-10-10--10--x--10-10-10----|
G--8--x--8-8-8---8--x--8-8-8--10--x--10-10-10--10--x--10-10-10----|
D-----------------------------------------------------------------|
A-----------------------------------------------------------------|
E-----------------------------------------------------------------|

End of Verse
[ Tab from: http://www.guitartabs.cc/tabs/c/culture_club/karma_chameleon_tab.html ]
e--6--x--6-6-6--6--x--6-6-6--6--x--6-6-6--6--x--6-6-6-------------|
B--8--x--8-8-8--8--x--8-8-8--8--x--8-8-8--8--x--8-8-8-------------|
G--8--x--8-8-8--8--x--8-8-8--8--x--8-8-8--8--x--8-8-8-------------|
D-----------------------------------------------------------------|
A-----------------------------------------------------------------|
E-----------------------------------------------------------------|

e--10-10-10-10-10-10-10----8--------------------------------------|
B--11-11-11-11-11-11-11----10-------------------------------------|
G--12-12-12-12-12-12-12----10-------------------------------------|
D-----------------------------------------------------------------|
A-----------------------------------------------------------------|
E-----------------------------------------------------------------|

Chorus

e--6-6-6-6-6-6--8--8--8--8--8--8--10-10-10-10-10-10-10-10-10------|
B--6-6-6-6-6-6--10-10-10-10-10-10-11-11-11-11-11-11-11-11-11------|
G--8-8-8-8-8-8--10-10-10-10-10-10-12-12-12-12-12-12-12-12-12------|
D-----------------------------------------------------------------|
A-----------------------------------------------------------------|
E-----------------------------------------------------------------|

e--10--8-8-8-8-8-8-8-8-8-8--6-6-6-6-6-6-8--8--8--8--8--8----------|
B--11--8-8-8-8-8-8-8-8-8-8--8-8-8-8-8-8-10-10-10-10-10-10---------|
G--12--8-8-8-8-8-8-8-8-8-8--8-8-8-8-8-8-10-10-10-10-10-10---------|
D-----------------------------------------------------------------|
A-----------------------------------------------------------------|
E-----------------------------------------------------------------|

Chorus Harmonica Fill

e-----------------------------------------------------------------|
B-------11-13b-13b-13b-13b-11~------------------------------------|
G-10-12-----------------------------------------------------------|
D-----------------------------------------------------------------|
A-----------------------------------------------------------------|
E-----------------------------------------------------------------|

comments corrections e-mail