Cultra - We Don't Care Chords & Tabs

 

We Don't Care Chords & Tabs

Cultra Chords & Tabs

Version: 1 Type: Bass Tab 1 rating
1 star 2 stars 3 stars 4 stars 5 stars
comments

We Don't Care Bass Tab

Tabber:stanthemantbb
WWW.GUITARTABS.CC/
Band name:Cultra
Song name:We Don't Care


INTRO
G--------------(x2)   
D-7h9---7h9----
A-----8-----8/5
E--------------

Verse
G--------------------|(x6)
D--------------------|         Bass starts out on the forth time guitar comes in
A-02320-----02320----|
E-------55--------11-|

Chorus
G----------------------|(X2)
D----------------------|
A----------------------|
E-111111-555555---00000|
[ Tab from: http://www.guitartabs.cc/tabs/c/cultra/we_dont_care_btab.html ]
Verse
G--------------------|(x6)
D--------------------|         
A-02320-----02320----|
E-------55--------11-|

Then a guitar solo comes right after that the bass comes in with a solo.
Bass solo
G---------------------------------   
D-7h9-7h9------------7h9-7h97h9\1~
A----8----8/5\8-8888--------------
E---------------------------------

Outro
G-------------
D-------------
A-------------
E-111-555-0~--

This is completely right because im in the band haha...Stan Bass and drums..
Comments