Cultra - Waited For So Long Chords & Tabs

 

Waited For So Long Chords & Tabs

Cultra Chords & Tabs

Version: 1 Type: Bass Tab 1 rating
1 star 2 stars 3 stars 4 stars 5 stars
comments

Waited For So Long Bass Tab

WWW.GUITARTABS.CC
Tabber:stanthemantbb
Band Name:Cultra
Song Name:Waited For So Long

Intro
                      (x3)
G--------------------|
D--------------------|
A--------------------|
E-0------------1--3~-|


Chorus

G-----------------------|(x2)
D-----------------------|
A-------------3~-3--5~--|
E-0~--0-3~--3-----------|


Verse
[ Tab from: http://www.guitartabs.cc/tabs/c/cultra/waited_for_so_long_btab.html ]
G--------------------------------------------------------------|
D--------------------------------------------------------------|(x2)
A------------3333--55555---------------5555--------------------|
E-0000--3333--------------0000---3333--------7777-0~-----------|

Chorus

G-----------------------|(x2)
D-----------------------|
A-------------3~-3--5~--|
E-0~--0-3~--3-----------|

Outro

G-------------------|(x3)
D-------------------|
A-------------------|
E-0------------1--3~|



Comments