Cultra - Waited For So Long- Acoustic Chords & Tabs

 

Waited For So Long- Acoustic Chords & Tabs

Cultra Chords & Tabs

Version: 1 Type: Tab 1 rating
1 star 2 stars 3 stars 4 stars 5 stars
comments

Waited For So Long- Acoustic Tab

WWW.GUITARTABS.CC
Tabber:stanthemantbb
Bande Name:Cultra
Song Name:Waited For So Long-acoustic

Intro
e-------------------|(x3)
b-------------------|
G-----0-2h32p0------|
D----2--------------|
A---2---------------|
E-0------------1--3~|

Chorus
e----------------------| (x2)
b----------------------|
G-------------5~-5--7~-|
D-2~--2-5~--5-5~-5--7~-|
A-2~--2-5~--5-3~-3--5~-|
E-0~--0-3~--3----------|
[ Tab from: http://www.guitartabs.cc/tabs/c/cultra/waited_for_so_long_acoustic_tab.html ]
Verse
e--------------------------------------------------------------| (x2)
b--------------------------------------------------------------|
G------------5555--77777---------------7777--------------------|
D-2222-x5555-5555--77777--2222--x5555x-7777-x9999x-------------|
A-2222-x5555-3333--55555--2222--x5555x-5555-x9999x-------------|
E-0000-x3333--------------0000--x3333x------x7777x0~-----------|

Chorus
e----------------------| (x2)
b----------------------|
G-------------5~-5--7~-|
D-2~--2-5~--5-5~-5--7~-|
A-2~--2-5~--5-3~-3--5~-|
E-0~--0-3~--3----------|

Outro
e-------------------|(x3)
b-------------------|
G-----0-2h32p0------|
D----2--------------|
A---2---------------|
E-0------------1--3~|


Comments