Cultra - Ball And Chain Chords & Tabs

 

Ball And Chain Chords & Tabs

Cultra Chords & Tabs

Version: 1 Type: Tab 1 rating
1 star 2 stars 3 stars 4 stars 5 stars
comments

Ball And Chain Tab

   
WWW.GUITARTABS.CC
Tabber:stanthemantbb
Band Name:Cultra
Song Name:Ball and Chain


Intro
e-------------|
b-------------|
G-------------|
D-22-55--44-2~|
A-22-55--44-2~|
E-00-33--22-0~|
[ Tab from: http://www.guitartabs.cc/tabs/c/cultra/ball_and_chain_tab.html ]
Verse
e----------------|
b----------------|
G----------------|(x6)
D-00-2-00-2-5-4~-|
A-00-2-00-2-5-4~-|
E-00-0-00-0-3-2~-|
  **   **  
Bridge
e-------------------------------|
b-------------------------------|
G-------------------------------|(x2)
D-00-4-00-5-00-7-00-5-00-----2b-|
A-00-4-00-5-00-7-00-5-00---2b---|
E-00-2-00-3-00-5-00-3-00-2b-----|
  **   **   **   **   **
Verse
e----------------|
b----------------|
G----------------|(x6)
D-00-2-00-2-5-4~-|
A-00-2-00-2-5-4~-|
E-00-0-00-0-3-2~-|
  **   **  

Chorus
e--------------------|
b--------------------|
G--------------------|(x2)
D-5555-7777-4444-2222|
A-5555-7777-4444-2222|
E-3333-5555-2222-0000|
  **** **** **** ****
Bass solo guitar plays in background
e-12h13--------------|
b-------13131313-11b-|
G--------------------|
D--------------------|
A--------------------|
E--------------------|
 
Verse
e----------------|
b----------------|
G----------------|(x6)
D-00-2-00-2-5-4~-|
A-00-2-00-2-5-4~-|
E-00-0-00-0-3-2~-|
  **   **  

Outro
e------|
b------|
G------|
D-22-42|
A-22-42|
E-00-20|

Comments