Cult - Sun King Chords & Tabs

 

Sun King Chords & Tabs

Cult Chords & Tabs

Version: 2 Type: Tab 0 ratings
1 star 2 stars 3 stars 4 stars 5 stars
comments

Sun King Tab

   
Song:Sun King
Artist:The Cult

Intro(Bass):

g----------------------------|------------------------|
d----------------------------|------------------------|
a---------------------3-3-5-5|------------------------|
E-3s5--3s5--3s5--3s5---------|-3s5--3s5--3s5--3s5--3~~|

Guitar 2

Intro:

e-19/|--|---------------|--------------------------|
b----|--|---------2s4-1~|--------------3-1-0-------|
g----|2\|2~~----2-------|-----4~-----4-------0-0h2~|
d----|--|---------------|--------------------------|
a----|--|---------------|--------------------------|
E----|--|---------------|--------------------------|

e-9s10~------9-9-12-14----|----------------------------------------------|
b----------------------16~|-12-12-14--12-11---12-12-14-16-14-12-12-8-8s10|
g-------------------------|----------------------------------------------|
d-------------------------|----------------------------------------------|
a-------------------------|----------------------------------------------|
E-------------------------|----------------------------------------------|

e-12s15-15-15\|
b-------------|
g-------------|
d-------------|
a-------------|
E-------------|

e-------------------------------------------------------|
b-------------------------------------------------------|
g-------------------------------------------------------|
d-7---7-5--4------5---7-5--4--5---7-5--4------3---7-5--4|
a-7-------------5-------------5-------------3-----------|
E-5-----------7---------------3-----------5-------------|

e-------------------------------------------------------|
b-------------------------------------------------------|
g-------------------------------------------------------|
d-7---7-5--4------5---7-5--4--5---7-5--4------3---7-5--4|
a-7-------------5-------------5-------------3-----------|
E-5-----------7---------------3-----------5-------------|

A5...
[ Tab from: http://www.guitartabs.cc/tabs/c/cult/sun_king_tab_ver_2.html ]
e---------|
b---------|
g-5-2-----|
d-----5-3~|
a---------|
E---------|

Verse:

A5... C5 D5 A5... G5(10th fret)

Pre-Chorus:

e-------------------------|-------------3s6-3s6-7-3-|
b-------------------------|-------------------------|
g-3-x-3-xx-3--3s6-3s6-7-3-|-6-x-6-xx-6--------------|
d-3-x-3-xx-3--------------|-6-x-6-xx-6--------------|
a-5-x-5-xx-5--------------|-4-x-4-xx-4--------------|
E-------------------------|-------------------------|

F5(8th fret)

Chorus:

A5...

e--------------|
b--------------|
g--------------|
d-----7--7-5--4|
a---7----------|
E-5------------|

G5...

e--------------|
b--------------|
g--------------|
d-----5--7-5--4|
a---5----------|
E-3------------|

Solo:

e-9-8-9-8-9-8-9-8s14~---|
b-----------------------|
g-----------------------|
d-----------------------|
a-----------------------|
E-----------------------|
Sorry, I just know this part. Hehe

Bridge:

e-19-|------8h9-8h9-8h9--|---------------|-------|
b----|-------------------|---------2s4-1~|-------|
g----|-2--0--------------|2~~----2-------|2~~~~~~|
d----|-------------------|---------------|-------|
a----|-------------------|---------------|-------|
E----|-------------------|---------------|-------|

e-5~-|-5-4-5-11~---7|------------------11--9-11-12-|
b----|--------------|-12-12-14--12-11--------------|
g----|--------------|------------------------------|
d----|--------------|------------------------------|
a----|--------------|------------------------------|
E----|--------------|------------------------------|

Outro:

e-----------------------------------|
b-10-10-10-8-10---7-7-8-8-6-3-3h5---|
g-----------------------------------|
d-----------------------------------|
a-----------------------------------|
E-----------------------------------|

Any corrections, please, talk to me by MSN: darklordlion@hotmail.com

Pedro Lion
Comments