Cult - She Sells Sanctuary Chords & Tabs

 

She Sells Sanctuary Chords & Tabs

Cult Chords & Tabs

Version: 3 Type: Tab 0 ratings
1 star 2 stars 3 stars 4 stars 5 stars
comments

She Sells Sanctuary Tab

   
Aritist-The Cult
Song -She Sells Sanctuary
Album-The Cult
Words by-Ian Astbury
Tabbed By-Smellslikefeet1

the intro and the fills are 100% right u need an eco pad to make it sounds exact
im  not totally sure about the cords 

H-Hammeron
S-slide to
P-pulloff
 D      C     G
|---| |---| |-3-|
|---| |---| |-3-|
|-7-| |-5-| |-0-|
|-7-| |-5-| |-0-|
|-5-| |-3-| |-2-|
|---| |---| |-3-|

Intro
|------------------------------------|-----------------------------------|
|---10--8--7---7-8--3-3--1-1-3-3-----|---10--8--12-12-10--8h10-10-8h10-10|
|--------------------------------0-0-|-----------------------------------|
|-0---0--0---0---------0-----------2-|-0---0---0---------0---------------|
|------------------------------------|-----------------------------------|
|------------------------------------|-----------------------------------|

|------------------10-|
|-10--8---10--8-------|
|-----0---------------|
|---0---0---0---0---0-|D  D  D  D  D  D  D D  C  C  C  C  G  G G G 
|--------------------|------------------------------|
|--------------------|------------------------------|
|-14-12-11-12-11-7-7-|-7-7-5-5-7-7-2-s-12-11-7-7----|
|-0--0--0--0--0--0-0-|-0-0-0-0-0-0-0---0--0--0-0----|
|--------------------|------------------------------|
|--------------------|------------------------------|
[ Tab from: http://www.guitartabs.cc/tabs/c/cult/she_sells_sanctuary_tab_ver_3.html ]
Oh the Heads That Turn...
  D D D D D D D D  C C C C  G  G  G  G 
|--------------------------------------------|
|--------------------------------------------|
|-7-7-7-7-7-7-7-7--5-5-5-5--12-12-12-12------|x4
|-0-0-0-0-0-0-0-0--0-0-0-0--0--0--0--0-------|
|--------------------------------------------|
|--------------------------------------------|
second part 
|----------------------------------|---------------------------------------|
|----------------------------------|---------------------------------------|
|-12s14-14-12s14-14-14-14-14-16-14-|-14-14-14-14-12-11-11-7-7-12-12-12-11-7|
|-0--0-----0--0--0--0--0--0--0--0--|-0--0--0--0--0--0--0--0-0-0--0--0--0--0|
|----------------------------------|---------------------------------------|
|----------------------------------|---------------------------------------|
Play this twice^

third part 
|--------------------------------------------|
|--------------------------------------------|
|-7-7-7-7-7-7-7-7--5-5-5-5--12-12-12-12------|
|-0-0-0-0-0-0-0-0--0-0-0-0--0--0--0--0-------|x2
|--------------------------------------------|
|--------------------------------------------|
                              G G G G
|-----------------------------3-3-3-3--------|
|-----------------------------3-3-3-3--------|
|-7-7-7-7-7-7-7-7--5-5-5-5----0-0-0-0--------|
|-0-0-0-0-0-0-0-0--0-0-0-0----0-0-0-0--------|x2
|-----------------------------2-2-2-2--------|
|-----------------------------3-3-3-3--------|this part comes up more through the song


thats pretty much all u need to know
Comments