Cult - She Sells Sanctuary Chords & Tabs

 

She Sells Sanctuary Chords & Tabs

Cult Chords & Tabs

Version: 2 Type: Tab 0 ratings
1 star 2 stars 3 stars 4 stars 5 stars
comments

She Sells Sanctuary Tab

   
The Cult: She Sells Sanctuary
tabbed by edbert

Standard Tuning

for the effects I use flanger on my digitech rp300, especially for the intro
try some reverb also

Intro
e|--------------------------------------------------|
b|--------------------------------------------------|
g|--14--12--11--7--5h7--19--5h7--5--5--7--7--2------|
d|--------------------------------------------------|
a|--------------------------------------------------|
E|--------------------------------------------------|

e|--------------------------------------------------|
b|----------------------------------------------15--|
g|--14--12--16--14--12h14--12h14-12--12-14--14------|
d|--------------------------------------------------|
a|--------------------------------------------------|
E|--------------------------------------------------|


 Riff 1   
e|--------------------------------------------------|
b|--------------------------------------------------|
g|-14-14-12-11-12-11-----------------/12-11---------|
d|-------------------12-12--10-12-----------12-12---| 
a|--------------------------------12----------------|
E|--------------------------------------------------|


Main Rhythm 
  D                           C               G        
e|--------------------------|-----------------33--3-|  
b|--------------------------|-----------------33--3-|  
g|-7------------------------|-5---------------00--0-|  
d|-7------------------------|-5---------------00--0-|  
a|-5------------------------|-3---------------22--2-|  
E|--------------------------|-----------------33--3-|

** sometimes the D and C chords here are played muted
   and the G isn't played
   the other times the D and C chords are louder and the 
   full G is struck ("and the world")


-here is the pattern of the rhythm
        D
Oh the heads that turn

 C                 G
Make my back burn

           D
And those heads that turn

 C                      G
Make my back - make my back burn



 Riff 2  
e|-----------------------------------------------------|
b|-----------------------------------------------------|
g|-14-------16-14-------14\12--12-12\11-11-11-(/)------|
d|-----------------------------------------------------|
a|-----------------------------------------------------|
E|-----------------------------------------------------|
[ Tab from: http://www.guitartabs.cc/tabs/c/cult/she_sells_sanctuary_tab_ver_2.html ]
e|-----------------------------------------------------|
b|-----------------------------------------------------|
g|-14-------16-14-------14\12--12-12\11-11-11\9-9-9-(/)|
d|-----------------------------------------------------|
a|-----------------------------------------------------|
E|-----------------------------------------------------|


solo
e|-----------------------------------------------------|
b|-----------------------------------------------------|
g|-14-12-10-14-12-10-14-12-10-14-12-10-14-12-----------|
d|-----------------------------------------------------|
a|-----------------------------------------------------|
E|-----------------------------------------------------|


outro     F#
e|--------2--------------------------------------------|
b|--------2--------------------------------------------|
g|-14-12--3--------------------------------------------|
d|--------4--------------------------------------------|
a|-----------------------------------------------------|
E|-----------------------------------------------------|


{ Intro }

{ Riff 1 }

Oh the heads that turn
Make my back burn
And those heads that turn
Make my back - make my back burn

{ Riff 2 }

The sparkle in your eyes
Keeps me alive
And the sparkle in your eyes
Keeps me alive - keeps me alive

And the world
And the world turns around
The world and the world yeah yeah
The world drags me down

{ Riff 1 }

Oh the heads that turn
Make my back burn
And those heads that turn
Make my back - make my back burn yeah yeah

{ Riff 2 }  Yeah yeah he-hey  Yeah yeah he-hey

The fire in your eyes
Keeps me alive
And the fire in your eyes
Keeps me alive

I'm sure in her you'll find
The sanctuary
I'm sure in her you'll find
The sanctuary

And the world
The world turns around  
And the world and the world
The world drags me down  

And the world and the world and the world
The world turns around   
And the world and the world and the world and the world
The world drags me down 

{ Intro }  Ah ah


{ solo } Yeah yeah he-hey  Yeah yeah he-hey  

( Yeah yeah he-hey )  And the world
( Yeah yeah he-hey )  And the world turns around  
( Yeah yeah he-hey )  And the world and the world
( Yeah yeah he-hey )  Yeah the world drags me down  

( Yeah yeah he-hey )  And the world
( Yeah yeah he-hey )  Yeah the world turns around 
( Yeah yeah he-hey )  And the world and the world
( Yeah yeah he-hey )  The world drags me down  

{ 1st half of intro }  Yeah yeah he-hey  { 2x }
{ Riff 1 }  Sanctuary         { 2x }
{ Outro, fades out w/ first half of intro }


any questions e-mail me at mac3214@earthlink.net
or im me at mac02546
Comments