Cult - She Sells Sanctuary Chords & Tabs

 

She Sells Sanctuary Chords & Tabs

Cult Chords & Tabs

Version: 3 Type: Bass Tab 0 ratings
1 star 2 stars 3 stars 4 stars 5 stars
comments

She Sells Sanctuary Bass Tab

Artist:   The Cult
Title:    She Sells Sanctuary
Type:     Bass Tab
[ Tab from: http://www.guitartabs.cc/tabs/c/cult/she_sells_sanctuary_btab_ver_3.html ]
Sorry John, but your tab was off by a fret. Move up a fret, like this:
    
    Riff 1 (played with there are no vocals):
    |-----------------|-----------------|-----------------|
    |-----------------|-----------------|-----------------|
    |-6-6-6-6-6-6-6-6-|-6-6-6-6-6-6-6-6-|-4-4-4-4-4-4-4-4-|
    |-----------------|-----------------|-----------------|
      1 & 2 & 3 & 4 &   1 & 2 & 3 & 4 &   1 & 2 & 3 & 4 &
    
    |-----------------|
    |-----------------|
    |-----------------|
    |-4-4-4-4-4-4-4-4-|
      1 & 2 & 3 & 4 &
    
    Riff 2 (played when there are vocals):
    |-----------------|-----------------|-----------------|
    |-----------------|-----------------|-----------------|
    |-6-6-6-6-6-6-6-6-|-6-6-6-6-6-6-6-6-|-4-4-4-4-4-4-4-4-|
    |-----------------|-----------------|-----------------|
      1 & 2 & 3 & 4 &   1 & 2 & 3 & 4 &   1 & 2 & 3 & 4 &
    
    |-----------------|
    |-----------------|
    |-3-3-3-3---------|
    |---------4-4-4-4-|
      1 & 2 & 3 & 4 &

- Teej -
Comments