Cult - Rise Chords & Tabs

 

Rise Chords & Tabs

Cult Chords & Tabs

Version: 1 Type: Tab 0 ratings
1 star 2 stars 3 stars 4 stars 5 stars
comments

Rise Tab

   
SONG: Rise
ARTIST: The Cult
ALBUM: Beyond Good and Evil

Dropped D Tuning

Tabbed by Ryan Liddell

INTRO

G1
E|-------------------------------------------|
B|-------------------------------------------|
G|-------------------------------------------|
D|-1-0-0-0--0-1-0-0-0--0-1-0-0-0--0-1-0-0-0--|
A|-1-0-0-0--0-1-0-0-0--0-1-0-0-0--0-1-0-0-0--|
D|-1-0-0-0--0-1-0-0-0--0-1-0-0-0--0-1-0-0-0--|

G2
E|------------------------------------------|
B|-10-----10h11p10-8-----8h10p8-7----7-7\3--|
G|------------------------------------------|
D|------------------------------------------|
A|------------------------------------------|
D|------------------------------------------|

VERSES
G1
E|-------------------------------------------|
B|-------------------------------------------|
G|-------------------------------------------|
D|-1-0-0-0--0-1-0-0-0--0-1-0-0-0--0-1-0-0-0--|
A|-1-0-0-0--0-1-0-0-0--0-1-0-0-0--0-1-0-0-0--|
D|-1-0-0-0--0-1-0-0-0--0-1-0-0-0--0-1-0-0-0--|

G2
E|---------------------------|
B|---------------------------|
G|-5h7-7-7-7-7--9p7-7-7-7-7--| (repeated)
D|-0---0-0-0-0----0-0-0-0-0--|
A|---------------------------|
D|---------------------------|

PRECHORUS 1
G1
E|---------------------------------|
B|---------------------------------|
G|---------------------------------|
D|-10-10-10-10-10--10-10-10-10-10--|
A|-10-10-10-10-10--10-10-10-10-10--|
D|-10-10-10-10-10---9--9--9--9--9--|

PRECHORUS 2
G1
E|---------------------------------|
B|---------------------------------|
G|---------------------------------| X 2
D|-0-0-------------------------3b--|
A|-0-0-----3b------5b------3-------|
D|-0-0-3-5-----3-5-----3-5---5-----|
[ Tab from: http://www.guitartabs.cc/tabs/c/cult/rise_tab.html ]
CHORUS
G1
E|----------------------------------------------
B|----------------------------------------------
G|----------------------------------------------
D|-0-0-0-0-0-0---10-10-10-10-10-10---5-5-5-5-5--
A|-0-0-0-0-0-0---10-10-10-10-10-10---5-5-5-5-5--
D|-0-0-0-0-0-0---10-10-10-10-10-10---5-5-5-5-5--
..into prechorus 2

G2
E|-------------------------------------|
B|-------------------------------------|
G|-10--9--------10--9------------------|
D|-------------------------------12~~--|
A|--------12-----------12--------------|
D|-------------------------------------|

BRIDGE/SOLO
G1
E|--------------------------
B|--------------------------
G|-------------------------- (for whole bridge)
D|-10-10-10-10-10-10-10-10--
A|-10-10-10-10-10-10-10-10--
D|-10-10-10-10-10-10-10-10--

G2 (2:41)
E|-------------------------------------------------
B|-------------------------------------------------
G|-------------------------------------------------
D|-10-10-10-10-10-10-10-10-12-10-10-10-10-10-10-10-
A|-------------------------------------------------
D|-------------------------------------------------
  (2:45)
E|-------------------------------
B|-------------------------------
G|--------------------------10b--
D|-10-13-10-13-10-13-10-13-------
A|-------------------------------
D|-------------------------------
  (2:48)
E|------------------------------------------
B|------------------------------------------
G|--10b-----------------10b-----------------
D|------12-10--10-10-10----12-10--10-10-10--
A|------------------------------------------
D|------------------------------------------
  (2:51)
E|-----------------------------------------|
B|-----------------------------------------|
G|--10b-------10b-------10b-10b-10b--------|
D|------12-10-----12-10-------------12-10--|
A|-----------------------------------------|
D|-----------------------------------------|
Comments