Cult - Go West Chords & Tabs

 

Go West Chords & Tabs

Cult Chords & Tabs

Version: 1 Type: Tab 0 ratings
1 star 2 stars 3 stars 4 stars 5 stars
comments

Go West Tab

   
OK, this is my first tab, any corrections, tell me, please.

Go West

Guitar 2

Intro

e--------------------------------|--------------------------------|-----------|
b-5-5-5-3-3-3--------------------|-5-5-5-3-3-3--------------------|5---3---2-0|
g-------------6-6-4-4-4-6-6-6-7-7|-------------6-6-2-2-2-4-4-4-6-6|-----------|
d--------------------------------|--------------------------------|-----------|
a--------------------------------|--------------------------------|-----------|
E--------------------------------|--------------------------------|-----------|


Verse
[ Tab from: http://www.guitartabs.cc/tabs/c/cult/go_west_tab.html ]
e-7-7--x-77-5-5--x-55-3-3--x-33-5-5--x-55|
b-7-7--x-77-5-5--x-55-3-3--x-33-5-5--x-55|
g----------------------------------------|
d----------------------------------------|
a----------------------------------------|
E----------------------------------------|


Chorus

e--------------------------|------------------|
b--------------------------|------------------|
g-4--44-7~--64-4--4-7~--764|4--44-7~--66-76764|
d--------------------------|------------------|
a--------------------------|------------------|
E--------------------------|------------------|
(Using wah-wah)

Bridge

e------------|
b-5---3---2-0|
g------------|
d------------|
a------------|
E------------|


Guitar 1

Intro

After sometimes of intro, play F#5 B5 


Verse

e-1-----1-----0-----2|
b-2-----1-----0-----2|
g-3-----2-----1-----3|
d-3-----3-----2-----4|
a-1-----3-----2-----4|
E-1-----1-----0-----2|


Chorus

1st Part:
Same as verse

2nd part:

e-1
b-2
g-3
d-3
a-1
e-1
(a lot of wah-wah)

Bridge:
Same as chorus
Comments