Cult - A Flower In The Desert Chords & Tabs

 

A Flower In The Desert Chords & Tabs

Cult Chords & Tabs

Version: 1 Type: Tab 0 ratings
1 star 2 stars 3 stars 4 stars 5 stars
comments

A Flower In The Desert Tab

   
Date: Sat, 28 Jun 2003 07:51:05 +0100 (BST)
From: Richie Herbert 
Subject: c/cult/a_flower_in_the_desert.tab

'A Flower in the Desert' by the Cult from the 'Dreamtime' album.

Tabbed by Richardos Herbertos aka the celibate_monkey@yahoo.co.uk

This is very mellow indeed. The intro is based around a D minor shape and then moves up
to an A minor postion.

The D minor bit. 

E |-------|-------|---1---|---0---|---1---|-------|---1---| 
B |-------|---3---|-------|-------|-------|---3---|-------|
G |---2---|-------|-------|-------|-------|-------|-------|
D |-------|-------|-------|-------|-------|-------|-------|
A |-------|-------|-------|-------|-------|-------|-------|
E |-------|-------|-------|-------|-------|-------|-------|

E |-------|-------|---1---|---0---|---1---|-------|---1---| 
B |-------|---3---|-------|-------|-------|---3---|-------|
G |---3---|-------|-------|-------|-------|-------|-------|
D |-------|-------|-------|-------|-------|-------|-------|
A |-------|-------|-------|-------|-------|-------|-------|
E |-------|-------|-------|-------|-------|-------|-------|

E |-------|-------|---1---|---0---|---1---|-------|---1---| 
B |-------|---3---|-------|-------|-------|---3---|-------|
G |---4---|-------|-------|-------|-------|-------|-------|
D |-------|-------|-------|-------|-------|-------|-------|
A |-------|-------|-------|-------|-------|-------|-------|
E |-------|-------|-------|-------|-------|-------|-------|

E |-------|-------|---1---|---0---|---1---|-------|---1---| 
B |-------|---3---|-------|-------|-------|---3---|-------|
G |---3---|-------|-------|-------|-------|-------|-------|
D |-------|-------|-------|-------|-------|-------|-------|
A |-------|-------|-------|-------|-------|-------|-------|
E |-------|-------|-------|-------|-------|-------|-------|

Then play the A minor bit
[ Tab from: http://www.guitartabs.cc/tabs/c/cult/a_flower_in_the_desert_tab.html ]
E |-------|-------|-------|-------|-------|-------|-------| 
B |-------|-------|---1---|---0---|---1---|-------|---1---|
G |-------|---2---|-------|-------|-------|---2---|-------|
D |---2---|-------|-------|-------|-------|-------|-------|
A |-------|-------|-------|-------|-------|-------|-------|
E |-------|-------|-------|-------|-------|-------|-------|

E |-------|-------|-------|-------|-------|-------|-------| 
B |-------|-------|---1---|---0---|---1---|-------|---1---|
G |-------|---2---|-------|-------|-------|---2---|-------|
D |---3---|-------|-------|-------|-------|-------|-------|
A |-------|-------|-------|-------|-------|-------|-------|
E |-------|-------|-------|-------|-------|-------|-------|

E |-------|-------|-------|-------|-------|-------|-------| 
B |-------|-------|---1---|---0---|---1---|-------|---1---|
G |-------|---2---|-------|-------|-------|---2---|-------|
D |---4---|-------|-------|-------|-------|-------|-------|
A |-------|-------|-------|-------|-------|-------|-------|
E |-------|-------|-------|-------|-------|-------|-------|

E |-------|-------|-------|-------|-------|-------|-------| 
B |-------|-------|---1---|---0---|---1---|-------|---1---|
G |-------|---2---|-------|-------|-------|---2---|-------|
D |---3---|-------|-------|-------|-------|-------|-------|
A |-------|-------|-------|-------|-------|-------|-------|
E |-------|-------|-------|-------|-------|-------|-------|


Then througout the song strum along on an Am and an open Bm

Am		x02210
Bm		x04430
Bm add 7	x04435

For example ....

Am

Wait a minute my friend ..............

Bm					Bm add 7

Don't pass me out for dead ...........

Comprendez?

There is a heavy (as heavy as this little ditty can get get) bit somewhere involving an
open Am shape moving on up the fret board, but I can't remember it off the top of my head. Sorry.
Comments