Cueshe - Ulan Chords & Tabs

 

Ulan Chords & Tabs

Cueshe Chords & Tabs

Version: 3 Type: Tab

Ulan Tab

MadALi lnG to mGa bro pAki raTe na lng........
tOntON_Lee
First tab ko lng to Ngaun lng ako cnipaG e...

intro
e|-------------------------------|    
B|------2--------------7---------|    
G|--4-4--------------------------| (2x)
D|---4-4--------8---8------------|    
A|--2-----------6-6--6-----------|    
E|-------------------------------|    

1st Guitar

e|-------------------------------|    
B|-------------------------------|    
G|-------------------------------|    
D|-444444--8888888----------2----|    
A|-222222--6666666--666666--2----|    
E|------------------444444--0----|    

2nd Guitar

e|-777777--11(7x)\--444444--0----|    
B|-------------------------------|    
G|-------------------------------|    
D|-------------------------------|    
A|-------------------------------|    
E|-------------------------------|    

Verse

e|-------------------------------|    
B|-4-----7-----Strum-------------|    
G|-4-----8-------Nyo-------------| (2x) 
D|-4-----8---------Lang----------|    
A|-2-----6-----------------------|    
E|-------------------------------|    

e|--------------------------------------------------------------------------|
B|--------------------------------------------------------------------------|
G|--------------------------------------------------------------------------|
D|-666666/--9999999\--444444/--888888\---------------------4444444----------|
A|-444444/--7777777\--222222/--666666\--6666666\--5555555--2222222--4444444-|
E|--------------------------------------4444446\--3333333-----------2222222-|

1st Guitar

e|-------------------------------|    
B|-------------------------------|    
G|-------------------------------|    
D|-444444--8888888----------2----|    
A|-222222--6666666--666666--2----|    
E|------------------444444--0----|    

2nd Guitar

e|-777777--11(7x)\--444444--0----|    
B|-------------------------------|    
G|-------------------------------|    
D|-------------------------------|    
A|-------------------------------|    
E|-------------------------------|    

Verse

e|-------------------------------|    
B|-4-----7-----Strum-------------|    
G|-4-----8-------Nyo-------------| (2x) 
D|-4-----8---------Lang----------|    
A|-2-----6-----------------------|    
E|-------------------------------|    

e|--------------------------------------------------------------------------|
B|--------------------------------------------------------------------------|
G|--------------------------------------------------------------------------|
D|-666666/--9999999\--444444/--888888\---------------------4444444----------|
A|-444444/--7777777\--222222/--666666\--6666666\--5555555--2222222--4444444-|
E|--------------------------------------4444446\--3333333-----------2222222-|

e|-------------------------------|
B|-------------------------------|
G|-------------------------------|
D|-4444444-----------22----------|
A|-2222222--4444444--22----------|
E|----------2222222--00----------|

Chorus

e|-------------------------------|
B|-------------------------------|
G|-------------------------------|
D|-444444/--8888888--------------|
A|-222222/--6666666--------------|
E|-------------------------------|

e|-------------------------------|
B|-------------------------------|
G|-------------------------------|
D|---------6666666---------------|
A|-666666--4444444---------------|
E|-444444------------------------|

e|-------------------------------|
B|-------------------------------|
G|-------------------------------|
D|-666666/--9999999\-------------|
A|-444444/--7777777\-------------|
E|-------------------------------|

e|-------------------------------|
B|-------------------------------|
G|-------------------999\8-------|
D|-444444------------999\8-------|
A|-222222--4444444/--777\6-------|
E|---------2222222/--------------|
[ Tab from: http://www.guitartabs.cc/tabs/c/cueshe/ulan_tab_ver_3.html ]
e|-------------------------------|
B|-------------------------------|
G|-------------------------------|
D|-444444/--8888888--------------|
A|-222222/--6666666--------------|
E|-------------------------------|

e|-------------------------------|
B|-------------------------------|
G|-------------------------------|
D|---------6666666---------------|
A|-666666--4444444---------------|
E|-444444------------------------|

e|-------------------------------|
B|-------------------------------|
G|-------------------------------|
D|-666666/--9999999\-------------|
A|-444444/--7777777\-------------|
E|-------------------------------|

Solo:

e|-------------------------------|
B|-------------------------------|
G|-------------------------------|
D|-444444/--8888888--------------|
A|-222222/--6666666--------------|
E|-------------------------------|

e|-------------------------------|
B|-------------------------------|
G|-------------------------------|
D|---------6666666---------------|
A|-666666--4444444---------------|
E|-444444------------------------|

e|-------------------------------|
B|-------------------------------|
G|------------------4------------|
D|-666666/----------4------------|
A|-444444/-4444444--2------------|
E|---------2222222---------------|

Piano to Ginawa ko lng gitara para matugtog nyo..

e|-------------------------------|
B|-4---4-4---4---------7-----7---|
G|-4---4-4---4---6---6-8-6-6-----|
D|---------------8---8-8---------|
A|-2-2---2-2-----6-6---6---6-----|
E|-------------------------------|

sAbay pAsok nG distOrtion!

e|--------------------------------------------------------------------------|
B|--------------------------------------------------------------------------|
G|--------------------------------------------------------------------------|
D|-666666/--9999999\--444444/--888888\---------------------4444444----------|
A|-444444/--7777777\--222222/--666666\--6666666\--5555555--2222222--4444444-|
E|--------------------------------------4444444\--3333333-----------2222222-|

e|-------------------------------|
B|-------------------------------|
G|-------------------------------|
D|-4444444-----------22----------|
A|-2222222--4444444--22----------|
E|----------2222222--00----------|

Chorus:

e|-------------------------------|
B|-------------------------------|
G|-------------------------------|
D|-444444/--8888888--------------|
A|-222222/--6666666--------------|
E|-------------------------------|

e|-------------------------------|
B|-------------------------------|
G|-------------------------------|
D|---------6666666---------------|
A|-666666--4444444---------------|
E|-444444------------------------|

e|-------------------------------|
B|-------------------------------|
G|-------------------------------|
D|-666666/--9999999\-------------|
A|-444444/--7777777\-------------|
E|-------------------------------|

e|-------------------------------|
B|-------------------------------|
G|-------------------999\8-------|
D|-444444------------999\8-------|
A|-222222--4444444/--777\6-------|
E|---------2222222/--------------|

e|-------------------------------|
B|-------------------------------|
G|-------------------------------|
D|-444444/--8888888--------------|
A|-222222/--6666666--------------|
E|-------------------------------|

e|-------------------------------|
B|-------------------------------|
G|-------------------------------|
D|---------6666666---------------|
A|-666666--4444444---------------|
E|-444444------------------------|

e|-------------------------------|
B|-------------------------------|
G|-------------------------------|
D|-666666/--9999999\-------------|
A|-444444/--7777777\-------------|
E|-------------------------------|

e|-------------------------------|
B|-------------------------------|
G|-------------------------------|
D|-4444444-----------22----------|
A|-2222222--4444444--22----------|
E|----------2222222--00----------|

Coda:

e|-----------------------------------|
B|-----------------------------------|
G|-----------------------------------|
D|-444--------------------222-444444-|
A|-222-444/-666\-444/-777-222-222222-|
E|-----222/-444\-222/-555-000--------|

ngA plA iloveyou mAe hehe!!!^_^ 19