Cueshe - Ulan Chords & Tabs

 

Ulan Chords & Tabs

Cueshe Chords & Tabs

Version: 2 Type: Tab

Ulan Tab

              -----------------------------
                          ULAN
              -----------------------------
see me at my friendster: introverted_guy17@yahoo.com
tabbed by:glen martin lubong
School: aDAMNson University..hehehe

Tuning - Standard (EADGBe)

intro:
e|---------------------------------------------------------------------|
B|---------------------------------------------------------------------|
G|---------------------------------------------------------------------|
D|-------------------8--88888---13--1313131313----9--99999-------------|
A|-----9--99999------6--66666---11--1111111111----7--77777-------------|
E|-----7--77777--------------------------------------------------------|


Verse 1:
e|-------------------------------------------------------------------|
B|-------------------------------------------------------------------|
G|-------------------------------------------------------------------|
D|-------------------------------------------------------------------|
A|-----9------------9---------------9-------------9------------------|
E|-----7------------6---------------7-------------6------------------|
     Lagi nalang umuulan         parang walang katapusan

e|----------------------------------------------------------------------|
B|----------------------------------------------------------------------|
G|----------------------------------------------------------------------|
D|-------------------------9--------------------------8-----------------|
A|---------------11--------7--------------9-----------6-----------------|
E|----------------9-----------------------7-----------------------------|
      tulad ng paghihirap ko ngayon   parang walang humpay

e|----------------------------------------------------------------------|
B|----------------------------------------------------------------------|
G|----------------------------------------------------------------------|
D|---------------------------------------9------------------------------|
A|-------11------------------------------7--------9-----------9---------|
E|--------9---------------------------------------7-----------6---------|
      sa kabila ng lahat ng aking pagsisikap nalimutin ka ay di parin

e|-------|
B|-------|
G|-------|
D|-------|
A|---9---|
E|---7---|
  magawa.....(Dugtong mo sa intro)

e|---------------------------------------------------------------------|
B|---------------------------------------------------------------------|
G|---------------------------------------------------------------------|
D|-------------------8--88888---13--1313131313----9--99999-------------|
A|-----9--99999------6--66666---11--1111111111----7--77777-------------|
E|-----7--77777--------------------------------------------------------|
[ Tab from: http://www.guitartabs.cc/tabs/c/cueshe/ulan_tab_ver_2.html ]
e|-------------------------------------------------------------------|
B|-------------------------------------------------------------------|
G|-------------------------------------------------------------------|
D|-------------------------------------------------------------------|
A|-----9------------9---------------9-------------9------------------|
E|-----7------------6---------------7-------------6------------------|
     hindi naman ako tanga        alam ko na wala ka na

e|----------------------------------------------------------------------|
B|----------------------------------------------------------------------|
G|----------------------------------------------------------------------|
D|-------------------------9--------------------------8-----------------|
A|---------------11--------7--------------9-----------6-----------------|
E|----------------9-----------------------7-----------------------------|
         pero mahirap lang na tangapin di na kita kapiling
e|---------------------------------------------------------------------|
B|---------------------------------------------------------------------|
G|---------------------------------------------------------------------|
D|------------------------9--------------------------------------------|
A|-------11---------------7--------9----------------------9------------|
E|--------9------------------------7----------------------6------------|
      iniwan mo akong nagiisa sa gitna ng dilim at basang basa pa sa

e|--------------------------|
B|--------------------------|
G|------------------99------|
D|------------------77------|
A|---9------9---------------|
E|---7------6---------------|
  ulan.....an..


e|---------------------------------------------------------------------|
B|---------------------------------------------------------------------|
G|---------------------------------------------------------------------|
D|---------------888---131313--------999-------------------------------|
A|------999------666---111111--------777-------------------------------|
E|------777------------------------------------------------------------|

      pero wag mg alala di na kita gagambalain

e|----------------------------------------------------------------------|
B|----------------------------------------------------------------------|
G|----------------------------------------------------------------------|
D|-------------------------999---------------------------99-------------|
A|----111111---------------777----------999----999-------77-------------|
E|-----9-9-9----------------------------777----666----------------------|
alam ko naman ngayon may kapiling ka ng iba....ah..


tapos un paulit ulit lang...uki!!!!!hirap plang gumawa first time ko lang!!!!!!!rate nyo 
please....peace out!!!Rock On!!