Cueshe - Stay Chords & Tabs

 

Stay Chords & Tabs

Cueshe Chords & Tabs

Version: 3 Type: Tab 0 ratings
1 star 2 stars 3 stars 4 stars 5 stars
comments

Stay Tab

   
Intro/Main Riff/Verse
 E-A (Guitar 1)
 |-------------------0--0--0--0--0--0---|
 |-------------------0--0--0--0--0--0---|
 |--1--1--1--1--1----2--2--2--2--2--2---|
 |--2--2--2--2--2----2--2--2--2--2--2---| 
 |--2--2--2--2--2----0--0--0--0--0--0---|
 |--------------------------------------| 

Guitar 2
E-A  (Listen to the song for the timing)
e|---------------------------------------------------------------------------
B|---------------------------------------------------------------------------
G|---------------------------------------------------------------------------
D|-----------------------------------------5h7-repeat several times----------
A|---9h11--repeat several times------------0-0-------------------------------
E|---0--0--------------------------------------------------------------------

before the  verse the "A chord" would be:

 |--------------|
 |--5--5--5--5--|
 |--6--6--6--6--|
 |--7--7--7--7--| 
 |--7--7--7--7--|
 |--------------|
 
[ Tab from: http://www.guitartabs.cc/tabs/c/cueshe/stay_tab_ver_3.html ]
Pre-chorus
 B-C#m-D-E
 |----------------------------------------------------------|
 |----4--4--4--4---5--5--5--5---7--7--7--7---9--9--9--9-----|
 |----4--4--4--4---6--6--6--6---7--7--7--7---9--9--9--9-----|
 |----4--4--4--4---6--6--6--6---7--7--7--7---9--9--9--9-----|
 |----2--2--2--2---4--4--4--4---5--5--5--5---7--7--7--7-----|
 |----------------------------------------------------------|
 
Chorus 
A-C#m-D-Bm
 |-------------------------------------------2--2--2--2-----|
 |----5--5--5--5---5--5--5--5---7--7--7--7---3--3--3--3-----|
 |----6--6--6--6---6--6--6--6---7--7--7--7---4--4--4--4-----|
 |----7--7--7--7---6--6--6--6---7- 7--7--7---4--4--4--4-----|
 |----7--7--7--7---4--4--4--4---5--5--5--5------------------|
 |----5--5--5--5--------------------------------------------|

Bridge:
 |----0--0--0--0------2--2--2--2------------------|
 |----1--1--1--1------3--3--3--3------------------|
 |----0--0--0--0------2--2--2--2---1--1--1--1-----|
 |----2--2--2--2------0--0--0--0---2--2--2--2-----|
 |----3--3--3--3-------------------2--2--2--2-----|
 |---------------------------------0--0--0--0-----|

or
 |-------------------------------------------------------------------|
 |----5--5--5--5---7--7--7--7---9--9--9--9--9--9--9--9--9------------|
 |----5--5--5--5---7--7--7--7---9--9--9--9--9--9--9--9--9------------|
 |----5--5--5--5---7--7--7--7---9--9--9--9--9--9--9--9--9------------|
 |----3--3--3--3---5--5--5--5---7--7--7--7--7--7--7--7--7------------|
 |-------------------------------------------------------------------|


JUST LISTEN TO THE SONG FOR TIMING

This tab is undoubtedly 100% correct...


I would like to dedicate tab to my cousin Denmark Dandan who becomes dumb everytime
he hears this song and to all UC-METC students especially to my classmates.....My
e-mail ad/ Friendster Account Jezrelmarvin@yahoo.com
My Website
www.geocities.com/jezrelmarvin
Comments