Cueshe - Stay Chords & Tabs

 

Stay Chords & Tabs

Cueshe Chords & Tabs

Version: 2 Type: Tab 0 ratings
1 star 2 stars 3 stars 4 stars 5 stars
comments

Stay Tab

   
Stay Tab by Cuesé


Title: Stay
Artist: Cueshe'
Tabbed by: jR_23



INTRO: also after 1st chorus
Rhtym:
 |-------------------------------------------------------------------|
 |-------------------0--0--0--0--0--0--------------------------------|
 |--1--1--1--1--1----2--2--2--2--2--2---1--1--1--1--1--1--1--1--1--1-|
 |--2--2--2--2--2----2--2--2--2--2--2---2--2--2--2--2--2--2--2--2--2-| 2x
 |--2--2--2--2--2-----------------------2--2--2--2--2--2--2--2--2--2-|
 |-------------------------------------------------------------------| 


(Lead) 
E|------------------------------------------------------------------|
B|--------------------—---------------------------------------------|
G|------------------------------------------------------------------|
D|--4-6-6-4-6-4-6-6-4-6-4-6-6----6-7-7-6-7-6-7-7-6-7-6-7-9----------|
A|------------------------------------------------------------------|
E|------------------------------------------------------------------|


E|------------------------------------------------------------------|
B|--------------------—---------------------------------------------|
G|------------------------------------------------------------------|
D|--4-6-6-4-6-4-6-6-4-6-4-6-6-4-2-----------------------------------|
A|------------------------------------------------------------------|
E|------------------------------------------------------------------|

E  =022100
A5 =002200 or 577XXX
B  =024440 or 024400
C#m=046650
D  =057770 or 057700
Bm =024430
C  =035550 or o35500

Stay
[ Cueshe ]
E
I believe
A5                                 E
we shouldnt let the moment pass us by
E
life's too short
A5                                   E
we shouldnt wait for the water to run dry
B
think about it
       C#m                           D
cause we only have one shot at destiny

all im asking
        E                       A5(1 stroke lng)  
could it possibly be you and me?

                                  D
So if you'd still go, i'll understand
Bm                                           A5
would you give me something just to hold on to?
               C#m                D
and if you'll stay, ill hold your hand
Bm                                           E
cause im truly, madly, crazily in love with you
[ Tab from: http://www.guitartabs.cc/tabs/c/cueshe/stay_tab_ver_2.html ]
Rhtym:
 |-------------------------------------------------------------------|
 |-------------------0--0--0--0--0--0--------------------------------|
 |--1--1--1--1--1----2--2--2--2--2--2---1--1--1--1--1--1--1--1--1--1-|
 |--2--2--2--2--2----2--2--2--2--2--2---2--2--2--2--2--2--2--2--2--2-| 
 |--2--2--2--2--2-----------------------2--2--2--2--2--2--2--2--2--2-|
 |-------------------------------------------------------------------| 


(Lead) 
E|------------------------------------------------------------------|
B|--------------------—---------------------------------------------|
G|------------------------------------------------------------------|
D|--4-6-6-4-6-4-6-6-4-6-4-6-6----6-7-7-6-7-6-7-7-6-7-6-7-9----------|
A|------------------------------------------------------------------|
E|------------------------------------------------------------------|


E|------------------------------------------------------------------|
B|--------------------—---------------------------------------------|
G|------------------------------------------------------------------|
D|--4-6-6-4-6-4-6-6-4-6-4-6-6-4-2-----------------------------------|
A|------------------------------------------------------------------|
E|------------------------------------------------------------------|


E
Time has come
   A5                    E
for us to go our separate ways
E
God forbid
A5                         E
But my mind is going crazy today

B
i feel so cold
        C#m
feel so numb
                             D
im having nightmares but im awake

Help me lord
E
Fight this loneliness
                 A5(1 stroke lng) 
Take this pain away

                                 D
So if you'd still go, i'll understand
Bm                                           A5
would you give me something just to hold on to?
               C#m                D
and if you'll stay, ill hold your hand
Bm                                          (C-D-E 2x)
cause im truly, madly, crazily in love with you


                                 D
So if you'd still go, i'll understand
  Bm                                         A5
would you give me something just to hold on to?
               C#m                D
and if you'll stay, ill hold your hand
  Bm                                         A5
cause im truly, madly, crazily in love with you
                 C#m           D
Now that you're gone, im all alone
        Bm                                A5
im still hoping that you would come back home
               C#m                     D
dont care how long, but im willing to wait
        Bm(1 stroke)
Cause im truly, madly, crazily in love with you 


e2 cueshe! lfet! angas n band! mi poh pla c jan ronald agbuya im a damer! ehehe!
dDc8 koh 2 sa beiby koh! iloveyou beiby koh! mwuaaaaaaahhh!
mhL n mhL kta bEiby koh!!!!!!
Comments