Cueshe - Sorry Chords & Tabs

 

Sorry Chords & Tabs

Cueshe Chords & Tabs

Version: 3 Type: Tab 0 ratings
1 star 2 stars 3 stars 4 stars 5 stars
comments

Sorry Tab

   
song:Sorry
Artist: Cueshe
Tabbed by: jR_23

E2 tma n tLga... ngkmLi Lng mi nung una! 
ehehe! enjoy! ,mdjo my mali prn

intro: E-A 2x

Lead:

e|--------------------------------------------------------------|
B|--------------------------------------------------------------|
G|--------------------------------------------------------------|
D|--4--2-----4--2-----2------9--7-----9--7-----6----------------|
A|--------4--------4---------------9--------9-------------------|
E|--------------------------------------------------------------|

e|--------------------------------------------------------------|
B|--------------------------------12-10----12-10----9-----------|
G|--11--9------11--9------9-------------11-------11-------------|
D|---------11---------11----------------------------------------|
A|--------------------------------------------------------------|
E|--------------------------------------------------------------|

E : 022100
A5: 002200 or 577xxx
G#m:466444
Bm7:024422
* :tancha nlng kung gno kdae)

Stanza: E-A5
Refrain: G#m-A5
Stanza: E-A5
Refrain: G#m-A5
If I could turn back the time
I'd spend it with you
Chorus: E-A5
(play INTRO...)
Stanza: E-A5
Refrain: G#m-A5
Chorus: E-A5
Bridge: Bm7-A5
Adlib: 
Rhythm: E-A

(base ata 2)
e|--------------------------------------------------------------|
B|--------------------------------------------------------------|
G|--------------------------------------------------------------|
D|--4--2-----4--2-----2------9--7-----9--7-----6----------------|	
A|--------4--------4---------------9--------9-------------------|
E|--------------------------------------------------------------|

[ Tab from: http://www.guitartabs.cc/tabs/c/cueshe/sorry_tab_ver_3.html ]
Lead:					              (E2 mdjo mbLis) 	          	
e|-------------------------------------------------------------------------|
B|----------------12b-10(*)--9h10s12--7h9b-7-7h9b----7---------------------|
G|------------------------------------------------------9-7-9-7-6----------|
D|----------------------------------------------------------------9-7*-----|
A|-------------------------------------------------------------------------|
E|-------------------------------------------------------------------------|
	(pakngGn nio nlng ung tyming ng scram)
e|--------------------------------------------------------------|
B|--------------10-10-10-10-10s-12-12-12-12-12---10-10-10-10-10-|
G|--9-9-9-9-9---X--X--X--X--X---X--X--X---X-X----X--X--X--X--X--|
D|--X-X-X-X-X---7--7--7--7--7-s-9--9--9--9--9----7--7--7--7--7--|	
A|--7-7-7-7-7---------------------------------------------------|
E|--------------------------------------------------------------|



Refrain: G#m-A5
Lead:
e|--X-X-X-X-X--X--X--X--X--X-------------|
B|--9-9-9-9-9--10-10-10-10-10------------|
G|--X-X-X-X-X--X--X--X--X--X-----2x------|
D|--6-6-6-6-6--7--7--7--7--7-------------|	
A|---------------------------------------|
E|---------------------------------------|

Chorus: E-A5
(pag 2nd my gn2 n)
e|--------------------------------------------------------------|
B|--------------------------------------------------------------|
G|--------------------------------------------------------------|
D|--4--2-----4--2-----2------9--7-----9--7-----6----------------|	
A|--------4--------4---------------9--------9-------------------|
E|--------------------------------------------------------------|

Ending:
Rhythm:E-A
Base:
e|--------------------------------------------------------------|
B|--------------------------------------------------------------|
G|--------------------------------------------------------------|
D|--4--2-----4--2-----2------9--7-----9--7-----6----------------|	2x
A|--------4--------4---------------9--------9-------------------|
E|--------------------------------------------------------------|
Lead:
e|--------------------------------------------------------------|
B|--------------------------------12-10----12-10----9-----------|
G|--11--9------11--9------9-------------11-------11-------------|
D|---------11---------11----------------------------------------|     2x
A|--------------------------------------------------------------|
E|--------------------------------------------------------------|
Comments