Cueshe - Sorry Chords & Tabs

 

Sorry Chords & Tabs

Cueshe Chords & Tabs

Version: 1 Type: Tab 0 ratings
1 star 2 stars 3 stars 4 stars 5 stars
comments

Sorry Tab

   
Song: Sorry :a song from CUESHE
Tuning: E A D G B E (standard)
Tabbed by: Hitokiri_rck
Note: Hey Guys I Aint Sure bout the chords but im confident bout this intro. If you
guys have any suggestions, just pm me, im me or mail me @ rck_hitokiri@yahoo.com. God
BLess.

Intro: 
[ Tab from: http://www.guitartabs.cc/tabs/c/cueshe/sorry_tab.html ]
e:|----------------------------------------------------------7--5--7--5----|
b:|---------------------------------------7---5---7---5--5--5----5-----7--9|
g:|---------------------4---2---4--2---2-4------6-------6------------------|
d:|--4--2---4--2---2--2-------2------4-------------------------------------|
a:|-2-----2------4---------------------------------------------------------|
e:|------------------------------------------------------------------------|

stanza: E A
refrain: Abm A
Chorus: E - A - B
In life nothin's certain'.......


e|-------|	e|-------|
b|-------|	b|-2-----|
g|-1-----|	g|-2-----|
d|-2-----|	d|-2-----|
a|-3-----|	a|-------|
e|-------|	e|-------|


refrain: Abm A

e|---4---|	e|-5-----|
b|---4---|	b|-5-----|
g|---4---|	g|-5-----|
d|---4--6|	d|-5--7--|
a|---4--6|	a|-5--7--|
e|---4---|	e|-5-----|

chorus: E A-B


-hanggang d2 muna lilinis pa ko kwarto... lol.
rck_hitokiri@yahoo.com
Comments