Cueshe - Sky Chords & Tabs

 

Sky Chords & Tabs

Cueshe Chords & Tabs

Version: 3 Type: Tab

Sky Tab

   
Song: Sky
Album:Half empty half full
Tabbed by:Kurt A.K."Z1rc0n" SJHS
Any comments? >>09193507063

INTRO: 
   (A)                       (E) 
  e|--------------------------------------------|
  a|--------------------------------------------|
  g|--------------------------------------------|
  D|--------------------------------------------|
  A|--7--9--11~-12-12-12-11-9-11----------------|
  E|-------------------------9s7-7-5--5-9s7-7-5-|
  (A)                          (E)   
  e|-----------------------------------------------|
  a|-----------------------------------------------|
  g|------------------------------------------9----|
  D|------------------------------------------9----|
  A|--7--9--11~-12-12-12-11-9-11-----------------7-|
  E|-------------------------9s7-7-5--5-9s7-7-5----|

Verse1:
  
  e|-x------x-x-x-------|-x--------x-x-x----|
  a|-x------x-x-x-------|-x--------x-x-x----|
  g|-9------9-9-9-------|-x--------x-x-x----|
  D|-9------9-9-9-------|-7--------7-7-7----|
  A|-7------7-7-7-------|-7--------7-7-7----|
  E|-x------x-x-x-------|-5--------5-5-5----|
  At First I love you... I give anything to you

  e|-x------x-x-x-------|-x--------x-x-x----|
  a|-x------x-x-x-------|-x--------x-x-x----|
  g|-9------9-9-9-------|-x--------x-x-x----|
  D|-9------9-9-9-------|-7--------7-7-7----|
  A|-7------7-7-7-------|-7--------7-7-7----|
  E|-x------x-x-x-------|-5--------5-5-5----|
 I climbe the highest mt. Just to be right by your side

  e|-x------x-x-x-------|-x--------x-x-x----|
  a|-x------x-x-x-------|-x--------x-x-x----|
  g|-9------9-9-9-------|-x--------x-x-x----|
  d|-9------9-9-9-------|-7--------7-7-7----|
  B|-7------7-7-7-------|-7--------7-7-7----|
  E|-x------x-x-x-------|-5--------5-5-5----|
   Of course I love you..And baby I needed you..
  
  e|-x------x-x-x--x-x-x-|-x--------x-x-x----|
  a|-x------x-x-x--x-x-x-|-x--------x-x-x----|
  g|-9------9-9-9--9-9-9-|-x--------x-x-x----|
  D|-9------9-9-9--9-9-9-|-7--------7-7-7----|
  A|-7------7-7-7--7-7-7-|-7--------7-7-7----|
  E|-x------x-x-x--x-x-x-|-5--------5-5-5----|
 You woke me up from my...darkest day..

  e|--------------------------------------------|
  a|--------------------------------------------|
  g|--------------------------------------------|
  D|--------------------------------------------|
  A|--7--9--11~-12-12-12-11-9-11----------------|
  E|-------------------------9s7-7-5--5-9s7-7-5-|

Refrain:
  e|-x------x-x-x-x-x----------|-x--------x-x-x----|
  a|-x------x-x-x-x-x----------|-x--------x-x-x----|
  g|-9------9-9-9-9-9----------|-x--------x-x-x----|
  D|-9------9-9-9-9-9----------|-7--------7-7-7----|
  A|-7------7-7-7-7-7----------|-7--------7-7-7----|
  E|-x------x-x-x-x-x----------|-5--------5-5-5----|
 Then suddenly things went sour..I couldn't imagine that

  e|-x------x-x-x-x-x----------|-x--------x-x-x----------|
  a|-x------x-x-x-x-x----------|-x--------x-x-x----------|
  g|-9------9-9-9-9-9----------|-x--------x-x-x----------|
  D|-9------9-9-9-9-9----------|-7--------7-7-7----------|
  A|-7------7-7-7-7-7----------|-7--------7-7-7----------|
  E|-x------x-x-x-x-x----------|-5--------5-5-5----------|
   You were just fooling me.. and baby it hurts inside

Chorus:

  e|-x-x-x-x-x-x-x-x-x-x------|-x--------x-x-x-x-x-x-x-x--------x-------|
  a|-x-x-x-x-x-x-x-x-x-x------|-x--------x-x-x-x-x-x-x-x--------x-------|
  g|-6-6-6-6-6-6-6-6-6-6------|-x--------x-x-x-x-x-x-x-x--------6-------|
  D|-6-6-6-6-6-6-6-6-6-6------|-7--------7-7-7-7-7-7-7-7--------6-------|
  A|-4-4-4-4-4-4-4-4-4-4------|-7--------7-7-7-7-7-7-7-7--------4-------|
  E|-x-x-x-x-x-x-x-x-x-x------|-5--------5-5-5-5-5-5-5-5--------x-------|
 Ooohh...I wish this pain will..go away, cause its killing me inside
[ Tab from: http://www.guitartabs.cc/tabs/c/cueshe/sky_tab_ver_3.html ]
  e|-x-x-x-x-x-x-x-x-x-x------|-x-----x-x-x-x-x-x-x-x--x-------|
  a|-x-x-x-x-x-x-x-x-x-x------|-x-----x-x-x-x-x-x-x-x--x-------|
  g|-6-6-6-6-6-6-6-6-6-6------|-x-----x-x-x-x-x-x-x-x--x-------|
  D|-6-6-6-6-6-6-6-6-6-6------|-7-----7-7-7-7-7-7-7-7--9-------|
  A|-4-4-4-4-4-4-4-4-4-4------|-7-----7-7-7-7-7-7-7-7--9-------|
  E|-x-x-x-x-x-x-x-x-x-x------|-5-----5-5-5-5-5-5-5-5--7-------|
 Ooohh...I wish this pain will..go away, cause you left me hurting
 Bridge:
  e|-x----|-x--------x-x-x-x-x-x-x-x--------------x-|
  a|-x----|-x--------x-x-x-x-x-x-x-x--------------x-|
  g|-9----|-x--------x-x-x-x-x-x-x-x--------------6-|
  D|-9----|-9--------7-7-7-7-7-7-7-7--------------6-|
  A|-7----|-9--------7-7-7-7-7-7-7-7--------------4-|
  E|-x----|-7--------5-5-5-5-5-5-5-5--------------x-|
    Ooh..  OoOhh..   Ooh, You lied to me..

  e|-x----|-x--------x-x-x-x-x-x-x-x--------------x-|
  a|-x----|-x--------x-x-x-x-x-x-x-x--------------x-|
  g|-9----|-x--------x-x-x-x-x-x-x-x--------------6-|
  D|-9----|-9--------7-7-7-7-7-7-7-7--------------6-|
  A|-7----|-9--------7-7-7-7-7-7-7-7--------------4-|
  E|-x----|-7--------5-5-5-5-5-5-5-5--------------x-|
    Ooh..  OoOhh..   Ooh, now you should let e free
  
  e|-x----|-x--------x-x-x-x-x-x--x--------|
  a|-x----|-x--------x-x-x-x-x-x--x--------|
  g|-6----|-x--------x-x-x-x-x-x--9--------|
  D|-6----|-7--------9-9-9-9-9-9--9--------|
  A|-4----|-7--------9-9-9-9-9-9--7--------|
  E|-x----|-5--------7-7-7-7-7-7--x--------|
   Baby... Please stop pullin me down

  ADLIB:
   Solo:
  (E)                             (A)
  e|--------------------------------12p10-9----9-10----9---------------|
  B|-----9--9-10-12-10-9--9----------------12-----12-10--12-10-10~~----|
  G|-9-11-11------------11-9--9s11--------------------------------12---|
  D|--------------------------9s11-------------------------------------|
  A|-------------------------------------------------------------------|
  E|-------------------------------------------------------------------|
   (E)                   (A) 
  e|-------19b21-17--------------------|
  B|---------------17~~-----12b14--10~~|
  G|-14s18-----------------------------|
  D|-14s18-----------------------------|
  A|-----------------------------------|
  E|-----------------------------------|

Chorus:

  e|-x-x-x-x-x-x-x-x-x-x------|-x--------x-x-x-x-x-x-x-x--------x-------|
  a|-x-x-x-x-x-x-x-x-x-x------|-x--------x-x-x-x-x-x-x-x--------x-------|
  g|-6-6-6-6-6-6-6-6-6-6------|-x--------x-x-x-x-x-x-x-x--------6-------|
  D|-6-6-6-6-6-6-6-6-6-6------|-7--------7-7-7-7-7-7-7-7--------6-------|
  A|-4-4-4-4-4-4-4-4-4-4------|-7--------7-7-7-7-7-7-7-7--------4-------|
  E|-x-x-x-x-x-x-x-x-x-x------|-5--------5-5-5-5-5-5-5-5--------x-------|
 Ooohh...I wish this pain will..go away, cause its killing me inside

  e|-x-x-x-x-x-x-x-x-x-x------|-x-----x-x-x-x-x-x-x-x--x-------|
  a|-x-x-x-x-x-x-x-x-x-x------|-x-----x-x-x-x-x-x-x-x--x-------|
  g|-6-6-6-6-6-6-6-6-6-6------|-x-----x-x-x-x-x-x-x-x--x-------|
  D|-6-6-6-6-6-6-6-6-6-6------|-7-----7-7-7-7-7-7-7-7--9-------|
  A|-4-4-4-4-4-4-4-4-4-4------|-7-----7-7-7-7-7-7-7-7--9-------|
  E|-x-x-x-x-x-x-x-x-x-x------|-5-----5-5-5-5-5-5-5-5--7-------|
 Ooohh...I wish this pain will..go away, cause you left me hurting

  Bridge:
  e|-x----|-x--------x-x-x-x-x-x-x-x--------------x-|
  a|-x----|-x--------x-x-x-x-x-x-x-x--------------x-|
  g|-9----|-x--------x-x-x-x-x-x-x-x--------------6-|
  D|-9----|-9--------7-7-7-7-7-7-7-7--------------6-|
  A|-7----|-9--------7-7-7-7-7-7-7-7--------------4-|
  E|-x----|-7--------5-5-5-5-5-5-5-5--------------x-|
    Ooh..  OoOhh..   Ooh, You lied to me..

  e|-x----|-x--------x-x-x-x-x-x-x-x--------------x-|
  a|-x----|-x--------x-x-x-x-x-x-x-x--------------x-|
  g|-9----|-x--------x-x-x-x-x-x-x-x--------------6-|
  D|-9----|-9--------7-7-7-7-7-7-7-7--------------6-|
  A|-7----|-9--------7-7-7-7-7-7-7-7--------------4-|
  E|-x----|-7--------5-5-5-5-5-5-5-5--------------x-|
    Ooh..  OoOhh..   Ooh, now you should let e free

  e|-x----|-x--------x-x-x-x-x-x--x--------|
  a|-x----|-x--------x-x-x-x-x-x--x--------|
  g|-6----|-x--------x-x-x-x-x-x--9--------| 
  D|-6----|-7--------9-9-9-9-9-9--9--------|
  A|-4----|-7--------9-9-9-9-9-9--7--------|
  E|-x----|-5--------7-7-7-7-7-7--x--------|
   Baby... Please stop pullin me down

Bridge:
  e|-x----|-x--------x-x-x-x-x-x-x-x--------------x-|
  a|-x----|-x--------x-x-x-x-x-x-x-x--------------x-|
  g|-9----|-x--------x-x-x-x-x-x-x-x--------------6-|
  D|-9----|-9--------7-7-7-7-7-7-7-7--------------6-|
  A|-7----|-9--------7-7-7-7-7-7-7-7--------------4-|
  E|-x----|-7--------5-5-5-5-5-5-5-5--------------x-|
    Ooh..  OoOhh..   Ooh, You lied to me..

  e|-x----|-x--------x-x-x-x-x-x-x-x--------------x-|
  a|-x----|-x--------x-x-x-x-x-x-x-x--------------x-|
  g|-9----|-x--------x-x-x-x-x-x-x-x--------------6-|
  D|-9----|-9--------7-7-7-7-7-7-7-7--------------6-|
  A|-7----|-9--------7-7-7-7-7-7-7-7--------------4-|
  E|-x----|-7--------5-5-5-5-5-5-5-5--------------x-|
    Ooh..  OoOhh..   Ooh, now you should let e free

  e|-x----|-x--------x-x-x-x-x-x--x--------|
  a|-x----|-x--------x-x-x-x-x-x--x--------|
  g|-6----|-x--------x-x-x-x-x-x--9--------| 
  D|-6----|-7--------9-9-9-9-9-9--9--------|
  A|-4----|-7--------9-9-9-9-9-9--7--------|
  E|-x----|-5--------7-7-7-7-7-7--x--------|
   Baby... Please stop pullin me down