Cueshe - Love Me Now Hate Me Soon Chords & Tabs

 

Love Me Now Hate Me Soon Chords & Tabs

Cueshe Chords & Tabs

Version: 1 Type: Tab 0 ratings
1 star 2 stars 3 stars 4 stars 5 stars
comments

Love Me Now Hate Me Soon Tab

   
Song:Love me now, Hate me soon
Artist:Cueshe
Tabbed: Aug. 22 2005
Transcribe by: Erwin Serrano Quezon City/Pangasinan 
                 (winserrano@yahoo.com)

mga guys try nyu to!! d ko masyadong nereview kaya pagpacnsyahan nyu na kong may mali!!



intro:  C# A C# A B
      
E|----------5-5--4-4-4--------------------------------0-4-5--5-5--4--4-4--|
B|---4-----------------4-------9-9-9---7--7-7--4--------------------------|
G|---6pause------------6pause------------------6pause---------------------|
D|------------------------------------------------------------------------|
A|------------------------------------------------------------------------|
E|------------------------------------------------------------------------|

      
E|------------------5-5-4-4--4-------------------------0-4-5--5-5--4--4-4-|
B|--2------2\7-6--4------------4-9-9-9---7--7-7--4------------------------|
G|--4-------------6------------6-----------------6pause-------------------|
D|--4pause----------------------------------------------------------------|
A|------------------------------------------------------------------------|
E|------------------------------------------------------------------------|

     
E|------------------------------------------------------------------------|
B|---2--------------------------------------------------------------------|
G|---4--------------------------------------------------------------------|
D|---4pause---------------------------------------------------------------|
A|------------------------------------------------------------------------|
E|------------------------------------------------------------------------|



Verse: 1

      
E|-----------------5-5-5---------------------------5-5-5------------------|
B|--4-4-4-----------------------------4-4-4-------------------------------|
G|------------------------------------------------------------------------|
D|------------------------------------------------------------------------|
A|-----------------------------------------------------------4h5-4--------|
E|------------------------------------------------------------------------|
   Feel sorry now our love died young
      
E|-----------------5-5-5--------------------------------------------------|
B|--4-4-4-----------------------------2-----------------------------------|
G|------------------------------------4-----------------------------------|
D|------------------------------------4pause------------------------------|
A|------------------------------------------------------------------------|
E|------------------------------------------------------------------------|
   It seems too late so tell me what have I done
      
E|-----------------5-5-5---------------------------5-5-5------------------|
B|--4-4-4-----------------------------4-4-4-------------------------------|
G|------------------------------------------------------------------------|
D|------------------------------------------------------------------------|
A|-----------------------------------------------------------4h5-4--------|
E|------------------------------------------------------------------------|
      Is it wrong   or is it    right

|-----------------5-5-5---------------------------------------------------|
B|--4-4-4-----------------------------2-----------------------------------|
G|------------------------------------4-----------------------------------|
D|------------------------------------4pause------------------------------|
A|------------------------------------------------------------------------|
E|------------------------------------------------------------------------|
  To let you go I know you'll be gone out of sight

Chorus:
[ Tab from: http://www.guitartabs.cc/tabs/c/cueshe/love_me_now_hate_me_soon_tab.html ]
   
E|----------5-5----0--0---------------------------------------------------|
B|--4-4-----7-7----2--2----------------------2--2-------------------------|
G|--6-6-----7-7----2--2----------------------4--4-------------------------|
D|--6-6------------1--1----------------------4--4-------------------------|
A|------------------------------------------------------------------------|
E|------------------------------------------------------------------------|
    Ohhhhhhhh,      you're the reason why I'm here
    
E|-------------------------5--5------------------------------------------|
B|----4--4-----------------7--7------------------------------------------|
G|----6--6-----------------7--7------------------------------------------|
D|----6--6---------------------------------------------------------------|
A|-----------------------------------------------------------------------|
E|-----------------------------------------------------------------------|           
        Were bound for our love
    
E|----0--0---------------------------------------------------------------|
B|----2--2----------------2--2-----2\7-6---------------------------------|
G|----2--2----------------4--4-------------------------------------------|
D|----1--1----------------4--4-------------------------------------------|
A|-----------------------------------------------------------------------|
E|-----------------------------------------------------------------------|
    Made promises we'll never part
  
E|----------5-5----0--0---------------------------------------------------|
B|--4-4-----7-7----2--2----------------------2--2-------------------------|
G|--6-6-----7-7----2--2----------------------4--4-------------------------|
D|--6-6------------1--1----------------------4--4-------------------------|
A|------------------------------------------------------------------------|
E|------------------------------------------------------------------------|
    Ohhhhhh,        you're the reason why I'm still here
   
E|-------------------------5--5------------------------------------------|
B|----4--4-----------------7--7------------------------------------------|
G|----6--6-----------------7--7------------------------------------------|
D|----6--6---------------------------------------------------------------|
A|-----------------------------------------------------------------------|
E|-----------------------------------------------------------------------|
      All those sleepless nights
    
E|----0--0---------------------------------------------------------------|
B|----2--2----------------2--2-----2\7-6---------------------------------|
G|----2--2----------------4--4-------------------------------------------|
D|----1--1----------------4--4-------------------------------------------|
A|-----------------------------------------------------------------------|
E|-----------------------------------------------------------------------|
I know now what I want
                (Repeat Intro)
And baby it's you


( do chords verse 1 )

You love me now then hate me soon
When things get rough oh why you
Blame it on the moon
Is it wrong or is it right
To let you go I know
You'll be gone out of sight

Repeat Chorus

Adlib:

     
E|--9-9--11/12--12/14--14/16---14-12-14--12-11-12-----------12------------|
B|-------------------------------------------------12-14-12-------12------|
G|-------------------------------------------------------------13---------|
D|------------------------------------------------------------------------|
A|------------------------------------------------------------------------|
E|------------------------------------------------------------------------|

     
E|--------------------------------------------------------12h14/16--19-21-|
B|-----------------------------------------------------14-----------------|
G|--11-11-11-11^9--9-9^8--8-8h9--8h9--9^11--9^11/13-13--------------------|
D|------------------------------------------------------------------------|
A|------------------------------------------------------------------------|
E|------------------------------------------------------------------------|

E|--21-19-17-17--16--14--12-11/12-----------------------------------------|
B|---------------------------------12/14----------------------------------|
G|------------------------------------------------------------------------|
D|------------------------------------------------------------------------|
A|------------------------------------------------------------------------|
E|------------------------------------------------------------------------|

(Repeat 2nd verse)

(Repeat Chorus 3x)

Outro:

E|----------5-5--4-4-4--------------------------------0-4-5--5-5--4--4-4--|
B|---4-----------------4-------9-9-9---7--7-7--4--------------------------|
G|---6pause------------6pause------------------6pause---------------------|
D|------------------------------------------------------------------------|
A|------------------------------------------------------------------------|
E|------------------------------------------------------------------------|

      
E|------------------5-5-4-4--4-------------------------0-4-5--5-5--4--4-4-|
B|--2------2\7-6--4------------4-9-9-9---7--7-7--4------------------------|
G|--4-------------6------------6-----------------6pause-------------------|
D|--4pause----------------------------------------------------------------|
A|------------------------------------------------------------------------|
E|------------------------------------------------------------------------|

     
E|------------------------------------------------------------------------|
B|---2--------------------------------------------------------------------|
G|---4--------------------------------------------------------------------|
D|---4pause---------------------------------------------------------------|
A|------------------------------------------------------------------------|
E|------------------------------------------------------------------------|


For any comments, you can send your messages at (winserrano@yahoo.com)
sa friendster ko. or u can also myk ur call or txt sa (09223006427)
Comments