Cueshe - Hump Ahead Chords & Tabs

 

Hump Ahead Chords & Tabs

Cueshe Chords & Tabs

Version: 2 Type: Tab

Hump Ahead Tab

   
Band:Cueshe
Song Title:Hump ahead(novice)
Tabber:Alchester Roa(al_kiesh@yahoo.com)

Hi...im Al from iligan city!!! this is my first time to tab a song,so i hope you guyz
like it!!!inayos kuna to..yunf first ko kasi ay maraming mali! handog ko 2 sa mga
kabanda ko at sa lahat mga skulmyts ko sa IMCC and most of all sa "GG" ko si kieshe
at sa mga cueshe fanantic out there..this is a really nice song!

note:listen to the song for the strumming patterns

Intro/Main Riff/Verse(parang piano pro makuha din sa gitara)
Guitar(clean)
     G          Am         Bm         C
 e|------------------------------------------------------|
 B|------------------------------------------------------|
 G|--12---------14---------16---------17-----------------|
 D|---x-(8x)-----x-(8x)-----x-(8x)-----x-(8x)------------| 
 A|--10---------12---------14---------15-----------------|
 E|------------------------------------------------------| 

Gutitar 2:papasok sabay nang drums..

 e|------------------------------------------------------|
 B|---12--12--12--12--12--12--12--12--12--12--12--12-----|
 G|-12--12--12--12--12--12--12--12--12--12--12--12-------|
 D|------------------------------------------------------| 
 A|------------------------------------------------------|
 E|------------------------------------------------------| 
 
Chorus:(strum as desired or listen to the song for the strumming patterns)
Guitars with Distortion
      G          D         Em          C
 e|------------------------------------------------------|
 B|------------------------------------------------------|
 G|--------------7----------9-----------5----------------|
 D|---5----------7----------9-----------5----------------| 
 A|---5----------5----------7-----------3----------------|
 E|---3--------------------------------------------------| 
[ Tab from: http://www.guitartabs.cc/tabs/c/cueshe/hump_ahead_tab_ver_2.html ]
repeat intro with a lead/piano
     G          Am         Bm         C
 e|------------------------------------------------------|
 B|--------------12----------12-------15--15--12~--------|
 G|-----12-14-12----12-14-12----12-14--------------------|
 D|------------------------------------------------------| 
 A|------------------------------------------------------|
 E|------------------------------------------------------| 

Verse 2(do intro chord patterns/tab patterns)
repeat chorus
solo:
 e|------------------------------------|
 B|------------------------------------| 
 G|-12~--14~--12-11-9-7-7h9~~----------| repeat 2x
 D|------------------------------------| 
 A|------------------------------------|
 E|------------------------------------| 

Verse 3(do intro chord patterns/tab patterns)
Repeat Chorus untill the song ends...

Guitar 2 do this chords:
Inro and Verse:
      G       Am        Bm         C
 e|---3---------------------------------------------------|
 B|---3--------1------------------------------------------|
 G|------------2---------4---------5----------------------|
 D|------------2---------4---------5----------------------| 
 A|---2------------------2---------3----------------------|
 E|---3---------------------------------------------------| 

chorus:
      G        D       Em         C
 e|---3--------2--------3---------3-----------------------|
 B|---3--------3--------3---------3-----------------------|
 G|------------2------------------------------------------|
 D|---------------------2---------2-----------------------| 
 A|---2-----------------2---------3-----------------------|
 E|---3---------------------------------------------------|

Interlude:

     G       Am        Bm         C
 e|---3---------------------------------------------------|
 B|---3--------1------------------------------------------|
 G|------------2---------4---------5----------------------|
 D|------------2---------4---------5----------------------| 
 A|---2------------------2---------3----------------------|
 E|---3---------------------------------------------------|