Cueshe - 24 Hours Chords & Tabs

 

24 Hours Chords & Tabs

Cueshe Chords & Tabs

Version: 2 Type: Tab

24 Hours Tab

   
Song:24 hours
Band/Artist:Cueshe'
Tabbed/Transcribed by:Khalvin

try my version of 24 hours by cueshe'....i'm not so sure about the verses though
it sounds pretty close

Note for the Adlib:Hammer po mga sinulat ko kaysa sa bend.....kung gusto nyo po bend
nyo nalang po yung hammer ganun rin po ang fret.
0--------------------------------------------------------------------------0

GTR I or II written for the solo only...

Legend:
h:Hammer
p:pull-off
~:vibrato


Intro:Clean
e|--0-----|
B|---0----|
G|--------| 10x
D|--------|
A|-7------|
E|--------|

e|------------0------------7--|
B|-------------0------------0-|
G|-8s9-8-----------8s9--------|
D|-8s9-8--9-9------8s9-9-9----|
A|-6s7-6--9--9-----6s7-9--9---|
E|--------7------------7------|


Verse 1:Slight Distortion
e|------------0------------7------------------0-------0--0-0-----|
B|-------------0------------0-------------0------------0-0-------|
G|-8s9-8-----------8s9--------8s9-8----------------------6---6---|2x
D|-8s9-8--9-9------8s9-9-9----8s9-8--9-9------------4----7----7--|
A|-6s7-6--9--9-----6s7-9--9---6s7-6--9--9----------4-----7-------|
E|--------7------------7-------------7------------2------5-------|


Chorus:Distortion/Overdrive
e|------------------------------------------------------|
B|------------------------------------------------------|
G|--------4-------------6-------------------------------|
D|-2------4-------------6-------------7-----------------|
A|-2------2-------------4-------------7-----------------|
E|-0----------------------------------5-----------------|
  Doesn't matter if i'm alone i got a place i call my own

e|---------------------------------------------------------------------|
B|---------------------------------------------------------------------|
G|--------4--------------6---------------------------------------------|
D|-2------4--------------6-------------6----7--------------4---------7-|
A|-2------2--------------4-------------6----7--------------4---------7-|
E|-0-----------------------------------4----5--------------2---------5-|
  I don't care if you're away 'cause i know you'll be back someday, someday


Interlude:

GTR I
Slight Distortion or overdrive
e|----------------------------------7h9p7-----11h12p11--------------------|
B|---------------------------5-7-9-7-----7h9p7--------14-12h14p14---------|
G|-8h9p8-6--4h6p6---------4-6------------------------------------11h13p11~|
D|----------------6-4h6~-6------------------------------------------------|
A|------------------------------------------------------------------------|
E|------------------------------------------------------------------------|

  Continued
e|-------------------7h9~|
B|-4h5p4-4-5-2-0--7h9----|
G|-----------------------|
D|-----------------------|
A|-----------------------|
E|-----------------------|


GTR II
Slight Distortion
e|------------0------------7------------------7-------0--0-0---|
B|-------------0------------0-------------0------------0-0-----|
G|-8s9-8-----------8s9--------8s9-8----------------------6---6-|
D|-8s9-8--9-9------8s9-9-9----8s9-8--9-9------------4----7----7|
A|-6s7-6--9--9-----6s7-9--9---6s7-6--9--9----------4-----7-----|
E|--------7------------7-------------7------------2------5-----|


Verse 2:Slight distortion
e|------------0------------7------------------7-------0--0-0---|
B|-------------0------------0-------------0------------0-0-----|
G|-8s9-8-----------8s9--------8s9-8----------------------6---6-|
D|-8s9-8--9-9------8s9-9-9----8s9-8--9-9------------4----7----7|
A|-6s7-6--9--9-----6s7-9--9---6s7-6--9--9----------4-----7-----|
E|--------7------------7-------------7------------2------5-----|

[ Tab from: http://www.guitartabs.cc/tabs/c/cueshe/24_hours_tab_ver_2.html ]
Chorus:Distortion/Overdrive
e|------------------------------------------------------|
B|------------------------------------------------------|
G|--------4-------------6-------------------------------|
D|-2------4-------------6-------------7-----------------|
A|-2------2-------------4-------------7-----------------|
E|-0----------------------------------5-----------------|
  Doesn't matter if i'm alone i got a place i call my own

e|---------------------------------------------------------------------|
B|---------------------------------------------------------------------|
G|--------4--------------6---------------------------------------------|
D|-2------4--------------6-------------6----7--------------4---------7-|
A|-2------2--------------4-------------6----7--------------4---------7-|
E|-0-----------------------------------4----5--------------2---------5-|
  I don't care if you're away 'cause i know you'll be back someday, someday


Bridge:Distortion/Overdrive
e|---------------------------------------------|
B|---------------------------------------------|
G|---------------------------------------------|
D|-9-----11--9------11--9------11--9-7-6-4-4-7~|
A|-9-----11--9------11--9------11--9-7-6-4-4-7~|
E|-7-----9---7------9---7------9---7-5-4-2-2-5~|
  oh.....    oh......   oh......


Verse 3:Slight Distortion
e|------------0------------7------------------7-------0--0-0---|
B|-------------0------------0-------------0------------0-0-----|
G|-8s9-8-----------8s9--------8s9-8----------------------6---6-|
D|-8s9-8--9-9------8s9-9-9----8s9-8--9-9------------4----7----7|
A|-6s7-6--9--9-----6s7-9--9---6s7-6--9--9----------4-----7-----|
E|--------7------------7-------------7------------2------5-----|


Outro:Distortion/Overdrive
e|------------------------------------------------------|
B|------------------------------------------------------|
G|--------4-------------6-------------------------------|
D|-2------4-------------6-------------7-----------------|
A|-2------2-------------4-------------7-----------------|
E|-0----------------------------------5-----------------|
  Doesn't matter if i'm alone i got a place i call my own

e|----------------------------------------------------------|
B|----------------------------------------------------------|
G|--------4--------------6----------------------------------|
D|-2------4--------------6-------------6----7---------------|
A|-2------2--------------4-------------6----7---------------|
E|-0-----------------------------------4----5---------------|
  I don't care if you're away 'cause i know you'll be back

e|------------------------------------------------------|
B|------------------------------------------------------|
G|--------4-------------6-------------------------------|
D|-2------4-------------6-------------7-----------------|
A|-2------2-------------4-------------7-----------------|
E|-0----------------------------------5-----------------|
  Doesn't matter if i'm alone i got a place i call my own

e|---------------------------------------------------------------------|
B|---------------------------------------------------------------------|
G|--------4--------------6---------------------------------------------|
D|-2------4--------------6-------------6----7--------------4---------7-|
A|-2------2--------------4-------------6----7--------------4---------7-|
E|-0-----------------------------------4----5--------------2---------5-|
  I don't care if you're away 'cause i know you'll be back someday, someday

e|-------------|
B|-------------|
G|-------------|
D|-4---------7~|
A|-4---------7~|
E|-2---------5~|
  someday....someday....

e|--0--|
B|-----|
G|-----|Repeat until before last note
D|---9-|
A|-7---|
E|-----|

End on

e|-0~~|
B|-0~~|
G|-9~~|
D|-9~~|
A|-7~~|
E|----|


                                 END
-----------------------------------------------------------------------------


yun lang po.......for corrections or requests email me at fujiyoshi08@yahoo.com

Thank you for taking your time to read my tab

Updated:I updated my tab...i took out the GTR I & II signs...i only left it for the 
i fixed the format....

Cheers!