Cueshe - 24 Hours Chords & Tabs

 

24 Hours Chords & Tabs

Cueshe Chords & Tabs

Version: 1 Type: Chords 0 ratings
1 star 2 stars 3 stars 4 stars 5 stars
comments

24 Hours Chords

   
24 hours
cueshe
half empty, half full
standard tuning:


Hi 2 all cueshe fans.....this is my interpretation of the song, kayo na mag
figure out kung paano eplucking, I only give you d  hint to start(chords),

Hindi ko na alam ang mga lead sa guitar pro sa rhythm lang tong TAB ko so pasensya
na, ndi kc ako ang gitarist sa band drummer lang ako 8).....


Hi 2 my baby, luv u bi...pra sau 2ng song na to 8)


Intro: 
 repeat nyo lng hanggang mkapasok ang drums 
------------------------------------------------
--4--5------------------------------------------
--4--4------------------------------------------
--4--4------------------------------------------
--2--2------------------------------------------
------------------------------------------------

part parin to ng intro(eplucking nyo)(pwede rin itong gamitin sa verse)
-------------------------------------------------------
----4-5--2-------------------------------------------
------------2-----------------------------------------
------------------------------------------------------
--2-------0------------------------------------------
------------------------------------------------------
[ Tab from: http://www.guitartabs.cc/tabs/c/cueshe/24_hours_crd.html ]
verse: C#m-B (eplucking nyo)

I've been lying here and wide awake
Till the night dies out and day to break
Every minute seems like endless hours 
     F#m       A
When I'm with you

I miss your eyes, your smile and lovely face
I can't forget those sweet embrace
We both could share our endless dreams 
    F#m        A
If you were here

Chorus: E-B-C#m-A

Doesn't matter if I'm alone
I got a place I call my own
I don't care if you're away       
                                                  F#m          A
Cause I know you'll be back someday, someday

Verse: C#m-B (eplucking nyo)
I guess it's better if we were off that way 
We'll find ourselves and come what may
If I could have one wish then I will beg 
    F#m       A
For you to stay

Coda : E-B-C#m( nakalimutan ko ang chords sa last)efigure nyo lang
Wo ho ho ho  3x


Verse: C#m-B (eplucking nyo)
I've been lying here and wide awake
The sun has come for the moon to take
I never thought that we could end like this 
      F#m      A
Wish you were here
Comments