Cryptic Fate - Bhobo Ghure Chords & Tabs

 

Bhobo Ghure Chords & Tabs

Cryptic Fate Chords & Tabs

Version: 3 Type: Tab 0 ratings
1 star 2 stars 3 stars 4 stars 5 stars
comments

Bhobo Ghure Tab

-------------------------------------------------------------
-------------------------------------------------------------
-------------------------------------------------------------
-------4-6-7-------4-6-7--------4-6-7------------------------
4--4-4-------7-7-7-------0-0-0--------2-2-2------------------
-------------------------------------------------------------
Bridge:
----------------------------------
----------------------------------
----------7---------11------------
---5-7-8--7--5-7-8--11--5-7-8--5--
----------5---------8----------5--
-------------------------------3--
well datz all i nou!
[ Tab from: http://www.guitartabs.cc/tabs/c/cryptic_fate/bhobo_ghure_tab_ver_3.html ]
Comments